Atreyu - Right Side Of The Bed Chords & Tabs

 

Right Side Of The Bed Chords & Tabs

Atreyu Chords & Tabs

Version: 9 Type: Tab 0 ratings
1 star 2 stars 3 stars 4 stars 5 stars
comments

Right Side Of The Bed Tab

   
Atreyu
Right Side of the Bed
The Curse
by: Vishal C.
This song is in drop C-->Basically Drop D but a full step down on each string

pm---- means to palm mute all of the strings under the letters pm and the lines after it
*=pinch harmonic
h=hammer-on
p=pull off
x=mute the note with a finger of the hand playing on the fretboard
b=if a number is placed b4 and after it, it means you bend the first fret number up to 
second (12b13 ,means to bend the 12th fret so it sounds like the 13th fret)
d=bend down from an already bent string
t=finger tap

INTRO
D---------------------------------------------------------------------------|
A---------6-----------------------6------------------------6----------------|
F---------5--5---3-3-5-5----------5--5--10-10--------------5--5--3-3-5-5----|
C---------7--5---3-3-5-5----------7--5--10-10-8-8----------7--5--3-3-5-5----|
G---------5--5---1-1-3-3----------5--5--8--8--8-8----------5--5--1-1-3-3----|
C-0-0-0-0---0--0----------0-0-0-0---0--0------8-8--0-0-0-0---0--0-----------|

D-------------------------------------------------------------------------|
A-------------------------------------------------------------------------|
F-2-----------------------------------------------------------------------|
C-2-2-2h3p2--2-3p2--------------------------------------------------------|
G-0--------3*-----3-------------------------------------------------------|
C-------------------------------------------------------------------------|
Intro (2x)

VERSE

D------------------------------------------------------------------------|
A------------------------------------------------------------------------|
F-----------------------3-3---------------------------3-3----------------|
C-0-0-------0--0-0-0--0-3-3-3-3-0-0-------0--0-0-0--0-3-3-3-3-0--------0-|
G-0-0-------0--0-0-0--0-1-1-3-3-0-0-------0--0-0-0--0-1-1-3-3-0-3--3h5-0-|
C-0-0-------0--0-0-0--0-----3-3-0-0-------0--0-0-0--0-----3-3-0--------0-|

D------------------------------------------------------------------------|
A------------------------------------------------------------------------|
F------------------------------------------------------------------------|
C---3p2-0--------/5-5-3-2-0--------0---3p2-0--------/5-5-3-2-------------|
G-3-----0-3--3h5----------0-3--3h5-0-3-----0-3--3h5----------------------|
C-------0-----------------0--------0-------0-----------------------------|

CHORUS

Guitar 1 (i tried to tab out the rhythem of the strumming as best i could, otherwise you 
figure out the rhythem)
D------------------------------------------------------------------------|
A------------------------------------------------------------------------|
F-----------------------------3--3--3-3-3-5--5-5--5-5--5-5-5-5-----------|
C-0--0--0-0-0-3--3-3--3-3-3-3-3--3--3-3-3-5--5-5--5-5--5-5-5-5-----------|
G-0--0--0-0-0-3--3-3--3-3-3-3-1--1--1-1-1-3--3-3--3-3--3-3-3-3-----------|
C-0--0--0-0-0-3--3-3--3-3-3-3--------------------------------------------|
(4x)

Guitar 2 (figure out the rhythem by yourself, you'll get it)
D-------------------------------------------------------------------------|
A-------------------------------------------------------------------------|
F-14-14-14/15-14-14-14-14/15-17-15-14/15-14-10-12-14-10-10-10/12-10-10-10-|
C-x--x--x--x--x--x--x--x--x--x--x--x-----x--x--x--x--x--x--x--x--x--x--x--|
G-12-12-12/13-12-12-12-12/13-15-13-12/13-12-8--10-12-8--8--8-/10-8--8--8--|
C-------------------------------------------------------------------------|

D-------------------------------------------------------------------------|
A-------------------------------------------------------------------------|
F-10/12-10-9-7-5-5--14-14-14/15-14-14-14-14/15-17-17-17-18-17-15-14-12-10-|
C-x--x--x--x-x-x-x--x--x--x--x--x--x--x--x--x--x--x--x--x--x--x--x--x--x--|
G-8-/10-8--7-5-3-3--12-12-12/13-12-12-12-12/13-15-15-15/17-15-13-12-10-8--|
C-------------------------------------------------------------------------|

D------------------------------------------------------------------------|
A------------------------------------------------------------------------|
F-10-10-10-10-10-10-10-10-10-10-10-9-7-5-5-------------------------------|
C-x--x--x--x--x--x--x--x--x--x--x--x-x-x-x-------------------------------|
G-8--8--8--8-/10-8--8--8--8-/10-8--7-5-3-3-------------------------------|
C------------------------------------------------------------------------|
After you play those parts it goes:
D-------------------------------------------------------------------------|
A-------------------------------------------------------------------------|
F-2-----------------------------------------------------------------------|
C-2-2-2h3p2--2-3p2--------------------------------------------------------|
G-0--------3*-----3-------------------------------------------------------|
C-------------------------------------------------------------------------|

VERSE

CHORUS
[ Tab from: http://www.guitartabs.cc/tabs/a/atreyu/right_side_of_the_bed_tab_ver_9.html ]
when going into the bridge, dont play that last part of the chorus

BRIDGE
    p.m.----   p.m.----   p.m.----   p.m.----   p.m.----   p.m.------------|
D--------------------------------------------------------------------------|
A--------------------------------------------------------------------------|
F-2----------3----------3----------5----------5----------7----------7------|
C-2----------3----------3----------5----------5----------7----------7------|
G-0--1-1-1-1-1--1-1-1-1-1--3-3-3-3-3--3-3-3-3-3--5-5-5-5-5--5-5-5-5-5------|
C--------------------------------------------------------------------------|

  p.m.----   p.m.----    p.m.----   p.m.----   p.m.------------------------|
D--------------------------------------------------------------------------|
A--------------------------------------------------------------------------|
F----------10---------10----------3----------3-----------------------------|
C----------10---------10----------3----------3-----------------------------|
G--8-8-8-8-8--8-8-8-8-8---1-1-1-1-1--1-1-1-1-1-3-3-3-3-3-3-3-3-3-3-3-3-3-3-|
C--------------------------------------------------------------------------|

D------------------------------------------------------------------------|
A------------------------------------------------------------------------|
F-7--7--5-3-3-------------5-3-3-5-7-7-7--5-3-3-----2----------------7--7-|
C-7--7--5-3-3-------------5-3-3-5-7-7-7--5-3-3-----2-2-2h3p2--2-3p2-7--7-|
G-5--5--3-1-1-----0-x-x-x-3-1-1/3-5-5-5--3-1-1-----0--------3*------5--5-|
C-------------3-2-0---------------0-0-0--------3-2-0---------------------|

D------------------------------------------------------------------------|
A------------------------------------------------------------------------|
F-5-3-3-------------5-3-3-5-7-7-7--5-3-3-------------5-3-3-2--3----------|
C-5-3-3-------------5-3-3-5-7-7-7--5-3-3-------------5-3-3-2--3----------|
G-3-1-1-----0-x-x-x-3-1-1/3-5-5-5--3-1-1-------x-x-x-3-1-1-0--1----------|
C-------3-2-0---------------0-0-0--------3-2-0---------------------------|

SOLO

Background Guitar (repeat this untill the solo is over)
D------------------------------------------------------------------------|
A------------------------------------------------------------------------|
F-------------------------3-3-3-3-3-3-3-3-3-3-3-3------------------------|
C-0-0-0-0-0-0-0-0-0-0-0-0-3-3-3-3-3-3-3-3-3-3-3-3------------------------|
G-0-0-0-0-0-0-0-0-0-0-0-0-1-1-1-1-1-1-1-1-1-1-1-1------------------------|
C-0-0-0-0-0-0-0-0-0-0-0-0------------------------------------------------|

Lead Guitar
D-------------------------------------------------------------------------|
A-10b11-13p10--11p10--13p10--11p10h11p10------13p10--11p10--13p10--11p10h-|
F-12b13------10-----10-----10-----------12p10------10-----10-----10-------|
C-------------------------------------------------------------------------|
G-------------------------------------------------------------------------|
C-------------------------------------------------------------------------|

D------------------------------------------------------13------------------|
A-11p10-----13p10--11p10--13p10--11p10h11p10------13b15--13b15d13-11-13b15-|
F------12p10-----10-----10-----10-----------12p10--------------------------|
C--------------------------------------------------------------------------|
G--------------------------------------------------------------------------|
C--------------------------------------------------------------------------|
below is extremely fast, also, for the part after the harmonic, keep the string bent while tapping
D-13-12-10------------------------------------------------------------------|
A----------13-12-10---------------------------------------------------------|
F-------------------12-10-12b14d12p10---------------------------------------|
C------------------------------------12-12*--12b14t17p14t15p14t17p14t19p14t-|
G---------------------------------------------------------------------------|
C---------------------------------------------------------------------------|

D-------------------------------------------------------------------------|
A----------------10h13t17p10h13t17p10h13t17p10h13t17p10h13t18p10h13t18p10-|
F-17p14t15p14d12----------------------------------------------------------|
C-------------------------------------------------------------------------|
G-------------------------------------------------------------------------|
C-------------------------------------------------------------------------|

D------------------------------------------------------------------------|
A-h13t18p10h13t18---11p10------------------------------------------------|
F-------------------------10-12-12b14d12---------------------------------|
C------------------------------------------------------------------------|
G------------------------------------------------------------------------|
C------------------------------------------------------------------------|

INTRO (but only one time)

CHORUS

THE END

email me for any problems: vishalchand@optonline.net
Comments