Atreyu - Right Side Of The Bed Chords & Tabs

 

Right Side Of The Bed Chords & Tabs

Atreyu Chords & Tabs

Version: 8 Type: Tab 0 ratings
1 star 2 stars 3 stars 4 stars 5 stars
comments

Right Side Of The Bed Tab

   
                     :::Atreyu-Right side of the bed (solo):::

tuning:1 step down (drop D position)
Key:
b-bend
h-hammer on
p-pull off
t-tap
*-pinch harmonics
r-release bend       (number of fret)-hold bend

|-------|-------------------------------------------------------------------|
|-10----|-13p10--11p10---13p10---11p10--11p10-------------------------------|
|-12b14-|------10-----10------10------10------12p10-------------------------|
|-------|-------------------------------------------------------------------|
|-------|-------------------------------------------------------------------|
|-------|-------------------------------------------------------------------|

|---------------------------------------------------------------------------|
|-13p10--11p10---13p10---11p10---10h11p10-----------------------------------|
|------10-----10------10------10----------12p10-----------------------------|
|---------------------------------------------------------------------------|
|---------------------------------------------------------------------------|
|---------------------------------------------------------------------------|

|------------------------------------------------13---------------------------|
|-13p10--11p10---13p10---11p10--11p10-------13b15--15r13p11-13b15-------------|
|------10-----10------10------10------12p10-----------------------------------|
|-----------------------------------------------------------------------------|
|-----------------------------------------------------------------------------|
|-----------------------------------------------------------------------------|
[ Tab from: http://www.guitartabs.cc/tabs/a/atreyu/right_side_of_the_bed_tab_ver_8.html ]
--13p12p10------------------------------------------------------------------|
------------13p12p10--------------------------------------------------------|
---------------------12b14r12p10----10--------------------------------------|
---------------------------------12-----12-12*------------------------------|
----------------------------------------------------------------------------|
----------------------------------------------------------------------------|

----------------------------------------------------------------------------|
----------------------------------------------------------------------------|
--12b(14)--t17p(14)-t15p(14)-t17p(14)-t19p(14)-t17p(14)-t15p(14)r12---------|
----------------------------------------------------------------------------|
----------------------------------------------------------------------------|
----------------------------------------------------------------------------|

----------------------------------------------------------------------------|
-t17p10h13-t17p10h13-t17p10h13-t17p10h13-t18p10h13-t18p10h13-t18p10h13--t17-|
----------------------------------------------------------------------------|
----------------------------------------------------------------------------|
----------------------------------------------------------------------------|
----------------------------------------------------------------------------|

----------------------------------------------------------------------------|
--11p10---------------------------------------------------------------------|
-------10-12-12b14-12b14-12-10-12-------------------------------------------|
----------------------------------------------------------------------------|
----------------------------------------------------------------------------|
----------------------------------------------------------------------------|

And thats it. Ive played it along to the song and it sounds perfect. I also saw the 
on scuzz and he plays it exactly like that.
If there are any problems with it my e-mail address is escapeartistjm@aol.com.
Comments