Atreyu - Right Side Of The Bed Chords & Tabs

 

Right Side Of The Bed Chords & Tabs

Atreyu Chords & Tabs

Version: 6 Type: Tab 0 ratings
1 star 2 stars 3 stars 4 stars 5 stars
comments

Right Side Of The Bed Tab

   
Band: Atreyu
Song: Right Side of the Bed
Album: The Curse

Drop C tuning (low to high) C G C F A d

Legend:
T- Tap
P- Pulloff
b- bend(will be indicated)
br-bend and realease
*- pinch harmonic

           Very Fast
D|--------|---------------------------------------------------|
A|-10-----|13p10--11p10--13p10---11p10---11p10----------------|
F|-12b14--|-----10-----10-----10------10------10-12p10--------|
C|--------|---------------------------------------------------|
G|--------|---------------------------------------------------|
C|--------|---------------------------------------------------|Reapeat 3x
[ Tab from: http://www.guitartabs.cc/tabs/a/atreyu/right_side_of_the_bed_tab_ver_6.html ]
D|-------13-----------|-13-12--10---------------------------------|
A|-13b15---13-11-13b15|-----------13-12--10-----------------------|
F|--------------------|----------------------12b14r12--10-12-10---|
C|--------------------|-----------------------------------------12|
G|--------------------|-------------------------------------------|
C|--------------------|-------------------------------------------|

D|-----------------10------10--12--10-------|
A|---------------------13--------------13---|
F|-10-------12b13----12--12--12--12--12--12-|
C|---12-12*---------------------------------|
G|------------------------------------------|
C|------------------------------------------|

Tapping Part
D|---------------------------------------|
A|T17-10h13-T17-10h13-T17-10h13-T17-10h13|
F|---------------------------------------|
C|---------------------------------------|
G|---------------------------------------|
C|---------------------------------------|

D|---------------------------------------|
A|T18-10h13-T18-10h13-T18-10h13-T18-10h13|
F|---------------------------------------|
C|---------------------------------------|
G|---------------------------------------|
C|---------------------------------------|

D|----------------------|
A|-11-10----------------|
F|------12-10-12b14r12--|
C|----------------------|
G|----------------------|
C|----------------------|

This solo is fun to play and its a great song.
Enjoy?
Comments