Atreyu - Right Side Of The Bed Chords & Tabs

 

Right Side Of The Bed Chords & Tabs

Atreyu Chords & Tabs

Version: 10 Type: Tab 0 ratings
1 star 2 stars 3 stars 4 stars 5 stars
comments

Right Side Of The Bed Tab

   
RIGHT SIDE OF THE BED
As recorded by Atreyu
(From the 2004 Album THE CURSE)
Words and Music by Atreyu
Arranged by Atreyu

Gtr I (C G C F A D) - 'Untitled'
Gtr II (C G C F A D) - 'Untitled'

 Intro
  Fast Rock Q=173
   D5        F D5EmD5  Bb5        C5            D5
 1/4    4/4
  Gtr I
   PM------|                                    PM|
|------|-----------------|--------------------------|
|------|-----------------|--------------------------|
|------|-----------------|--------------------------|
|------|-----7---5-----8-|-(8)-8--10-(10)-10-10-----|
|--0-0-|-0-0-8-0-7-0-0-8-|-(8)-8--10-(10)-10-10-0-0-|
|--0-0-|-0-0---0---0-0-8-|-(8)-8--10-(10)-10-10-0-0-|
|
| Gtr II
|  PM------|                                    PM|
|------|-----------------|--------------------------|
|------|-----6---5-------|--------------------------|
|------|-----7---5-------|--------------------------|
|------|---------------8-|-(8)-8--10-(10)-10-10-----|
|--0-0-|-0-0---0---0-0-8-|-(8)-8--10-(10)-10-10-0-0-|
|--0-0-|-0-0---0---0-0-8-|-(8)-8--10-(10)-10-10-0-0-|


  D5  F D5EmD5  F5            Bb5      D5
  PM|                                  PM|
|------------------|-----------------------|
|------------------|-----------------------|
|---------------10-|-(10)-10---------------|
|-----7---5-----10-|-(10)-10--8-(8)--8-----|
|-0-0-8-0-7-0-0--8-|--(8)--8--8-(8)--8-0-0-|
|-0-0---0---0-0----|----------8-(8)--8-0-0-|
|
| PM|                                  PM|
|------------------|-----------------------|
|-----6---5--------|-----------------------|
|-----7---5-----10-|-(10)-10---------------|
|---------------10-|-(10)-10--8-(8)--8-----|
|-0-0---0---0-0--8-|--(8)--8--8-(8)--8-0-0-|
|-0-0---0---0-0----|----------8-(8)--8-0-0-|


  D5  F D5EmD5  Bb5        C5            A5
  PM|
|-----------------|------------------------|
|-----------------|------------------------|
|-----------------|------------------------|
|-----7---5-----8-|-(8)-8--10-(10)-10-10-7-|
|-0-0-8-0-7-0-0-8-|-(8)-8--10-(10)-10-10-7-|
|-0-0---0---0-0-8-|-(8)-8--10-(10)-10-10-7-|
|
| PM|
|-----------------|------------------------|
|-----6---5-------|------------------------|
|-----7---5-------|------------------------|
|---------------8-|-(8)-8--10-(10)-10-10---|
|-0-0---0---0-0-8-|-(8)-8--10-(10)-10-10-0-|
|-0-0---0---0-0-8-|-(8)-8--10-(10)-10-10-0-|


                  Bb5                   D5
|---------------------|-------------------||
|---------------------|-------------------||
|---------------------|-------------------||
|-(7)-7-7-7-7-7-7--8--|-(8)-8-8-8-8-8-8-0-||
|-(7)-7-7-7-7-7-7--8--|-(8)-8-8-8-8-8-8-0-||
|-(7)-7-7-7-7-7-7--8--|-(8)-8-8-8-8-8-8-0-||
|
|---------------------|-------------------||
|---------------------|-------------------||
|---------------------|-------------------||
|-----------3-2-------|-------2---5-3-2-0-||
|-(0)-0-3-0-----3-----|-----3---3-------0-||
|-(0)-------------[3]-|-(3)-------------0-||


 Pre-Verse
        F D5EmD5  Bb5        C5            D5
          PM  PM|
|-------------------|------------------------|
|-------------------|------------------------|
|-------------------|------------------------|
|-(0)-0-7---5-----8-|-(8)-8--10-(10)-10-10-0-|
|-(0)-0-8-0-7-0-0-8-|-(8)-8--10-(10)-10-10-0-|
|-(0)-0---0---0-0-8-|-(8)-8--10-(10)-10-10-0-|
|
|         PM  PM|
|-------------------|------------------------|
|-------6---5-------|------------------------|
|-------7---5-------|------------------------|
|-(0)-0-----------8-|-(8)-8--10-(10)-10-10-0-|
|-(0)-0---0---0-0-8-|-(8)-8--10-(10)-10-10-0-|
|-(0)-0---0---0-0-8-|-(8)-8--10-(10)-10-10-0-|


        F D5EmD5  F5                 Bb5           D5
          PM  PM|
|---------------------|------------------------------|
|---------------------|------------------------------|
|------------------10-|-(10)-10----------------------|
|-(0)-0-7---5------10-|-(10)-10------8-(8)-------8-0-|
|-(0)-0-8-0-7-0-0---8-|--(8)--8------8-(8)-------8-0-|
|-(0)-0---0---0-0-----|--------------8-(8)-------8-0-|
|
|         PM  PM|
|---------------------|------------------------------|
|-------6---5---------|------------------------------|
|-------7---5-----/12-|-(12)-10-(10)-9-(9)-10p9------|
|-(0)-0---------------|-------------------------10-0-|
|-(0)-0---0---0-0-----|----------------------------0-|
|-(0)-0---0---0-0-----|----------------------------0-|


        F D5EmD5  Bb5        C5            A5
          PM  PM|
|-------------------|------------------------|
|-------------------|------------------------|
|-------------------|------------------------|
|-(0)-0-7---5-----8-|-(8)-8--10-(10)-10-10-7-|
|-(0)-0-8-0-7-0-0-8-|-(8)-8--10-(10)-10-10-7-|
|-(0)-0---0---0-0-8-|-(8)-8--10-(10)-10-10-7-|
|
|         PM  PM|
|-------------------|------------------------|
|-------6---5-------|------------------------|
|-------7---5-------|------------------------|
|-(0)-0-----------8-|-(8)-8--10-(10)-10-10---|
|-(0)-0---0---0-0-8-|-(8)-8--10-(10)-10-10-0-|
|-(0)-0---0---0-0-8-|-(8)-8--10-(10)-10-10-0-|


                  Bb5                   D5
|---------------------|-------------------||
|---------------------|-------------------||
|---------------------|-------------------||
|-(7)-7-7-7-7-7-7--8--|-(8)-8-8-8-8-8-8-0-||
|-(7)-7-7-7-7-7-7--8--|-(8)-8-8-8-8-8-8-0-||
|-(7)-7-7-7-7-7-7--8--|-(8)-8-8-8-8-8-8-0-||
|
|---------------------|-------------------||
|---------------------|-------------------||
|---------------------|-------------------||
|-----------3-2-------|-------2---5-3-2-0-||
|-(0)-0-3-0-----3-[1]-|-(1)-3---3-------0-||
|-(0)-----------------|-----------------0-||


   Verse
    $
         D5                                Bb5        F5       D5
    Gtrs I, II
                                       PM|
||--------------|-----------|----------------|---------------------||
||o-------------|-----------|----------------|--------------------o||
||--------------|-----------|----------------|---------------------||
||--(0)--0------|------0--0-|-(0)--0-------8-|-(8)-8--3-(3)-3--0---||
||o-(0)--0------|------0--0-|-(0)--0---0-0-8-|-(8)-8--3-(3)-3--0--o||
||--(0)--0------|------0--0-|-(0)--0---0-0-8-|-(8)-8--3-(3)-3--0---||


 Pre-Chorus
        N.C.                        D5
  Gtr I
          PM                 PM
|------------------|------------------|
|------------------|------------------|
|------------------|------------------|
|-(0)-0------------|----------------0-|
|-(0)-0-3---3h5----|-------3---8p7--0-|
|-(0)-0---0------0-|-(0)-0---0------0-|
|
| Gtr II
|         PM                 PM
|------------------|------------------|
|------------------|------------------|
|------------------|------------------|
|-(0)-0------------|----------------0-|
|-(0)-0-3---3h5----|-------3---8p7--0-|
|-(0)-0---0------0-|-(0)-0---0------0-|


        N.C.     Bb5         F5          D5
          PM
|-------------------|----------------------|
|-------------------|----------------------|
|-------------------|----------------------|
|-(0)-0-----------8-|-(8)-8--3-(3)-3-----0-|
|-(0)-0-3---3h5---8-|-(8)-8--3-(3)-3-----0-|
|-(0)-0---0-------8-|-(8)-8--3-(3)-3-----0-|
|
|         PM
|-------------------|----------------------|
|-------------------|----------------------|
|-------------------|----------------------|
|-(0)-0----------/5-|-(5)-5--3-----2-(2)-0-|
|-(0)-0-3---3h5-----|--------------------0-|
|-(0)-0---0---------|--------------------0-|


        N.C.                        A5
          PM                 PM
|------------------|------------------|
|------------------|------------------|
|------------------|------------------|
|-(0)-0------------|----------------7-|
|-(0)-0-3---3h5----|-------3---8p7--7-|
|-(0)-0---0------0-|-(0)-0---0------7-|
|
|         PM                 PM
|------------------|------------------|
|------------------|------------------|
|------------------|------------------|
|-(0)-0------------|----------------0-|
|-(0)-0-3---3h5----|-------3---8p7--0-|
|-(0)-0---0------0-|-(0)-0---0------0-|


                  Bb5                      D5
|--------------------|------------------------||
|--------------------|------------------------||
|--------------------|------------------------||
|-(7)-7-7-7-7-7-7--8-|-(8)-8-8-8--8--8--8---0-||
|-(7)-7-7-7-7-7-7--8-|-(8)-8-8-8--8--8--8---0-||
|-(7)-7-7-7-7-7-7--8-|-(8)-8-8-8--8--8--8---0-||
|
|         PM
|--------------------|------------------------||
|--------------------|------------------------||
|--------------------|---------------------14-||
|-(0)-0-----------/5-|-(5)-5---3-(3)-2-(2)--x-||
|-(0)-0-3---3h5------|---------------------12-||
|-(0)-0---0----------|------------------------||


 Chorus
  $$
       D5              F5                          Bbsus2
|-------------------------|---------------------------|
|-------------------------|---------------------------|
|-------------------------|---------------------------|
|--(0)--0--0---0--0--0--3-|--(3)--3--3---3--3---3--10-|
|--(0)--0--0---0--0--0--3-|--(3)--3--3---3--3---3---8-|
|--(0)--0--0---0--0--0--3-|--(3)--3--3---3--3---3---8-|
|
|-------------------------|---------------------------|
|-------------------------|---------------------------|
|-(14)-14-14--14-14-15-14-|-(14)-14-14--14-15-(15)-17-|
|-------x--x---x--x--x--x-|-------x--x---x--x-------x-|
|-(12)-12-12--12-12-13-12-|-(12)-12-12--12-13-(13)-15-|
|-------------------------|---------------------------|


                         C5                              D5
|---------------------------|-------------------------------|
|---------------------------|-------------------------------|
|---------------------------|-------------------------------|
|-(10)-10-10--10-10-(10)-10-|-(10)-10-10-10--10--10--10---0-|
|--(8)--8--8---8--8--(8)-10-|-(10)-10-10-10--10--10--10---0-|
|--(8)--8--8---8--8--(8)-10-|-(10)-10-10-10--10--10--10---0-|
|
|---------------------------|-------------------------------|
|---------------------------|-------------------------------|
|-(17)-17-15--14-----15--14-|-(14)-14-12-10-(10)-12-(12)-14-|
|-------x--x---x------x---x-|-------x--x--x-------x-------x-|
|-(15)-15-13--12-----13--12-|-(12)-12-10--8--(8)-10-(10)-12-|
|---------------------------|-------------------------------|


       D5                F5                            Bbsus2
|---------------------------|-----------------------------|
|---------------------------|-----------------------------|
|---------------------------|-----------------------------|
|--(0)--0--0-----0--0--0--3-|--(3)--3--3-----3--3---3--10-|
|--(0)--0--0-----0--0--0--3-|--(3)--3--3-----3--3---3---8-|
|--(0)--0--0-----0--0--0--3-|--(3)--3--3-----3--3---3---8-|
|
|---------------------------|-----------------------------|
|---------------------------|-----------------------------|
|-(14)-10-10-10-10-10-10-10-|-(10)-10-10-10-10-12-(12)-10-|
|-------x--x--x--x--x--x--x-|-------x--x--x--x--x-------x-|
|-(12)--8--8--8--8--8--8--8-|--(8)--8--8--8--8-10-(10)--8-|
|---------------------------|-----------------------------|


                            C5                          D5
|------------------------------|---------------------------|
|------------------------------|---------------------------|
|------------------------------|---------------------------|
|-(10)-10-10----10--10-(10)-10-|-(10)-10-10-10-10-10-10--0-|
|--(8)--8--8-----8---8--(8)-10-|-(10)-10-10-10-10-10-10--0-|
|--(8)--8--8-----8---8--(8)-10-|-(10)-10-10-10-10-10-10--0-|
|
|------------------------------|---------------------------|
|------------------------------|---------------------------|
|-(10)--9-(9)-7-(7)--5--(5)--5-|--(5)--5--5--5--5--5--5-14-|
|-------x-----x------x-------x-|-------x--x--x--x--x--x--x-|
|--(8)--7-(7)-5-(5)--3--(3)--3-|--(3)--3--3--3--3--3--3-12-|
|------------------------------|---------------------------|


       D5              F5                          Bbsus2
|-------------------------|---------------------------|
|-------------------------|---------------------------|
|-------------------------|---------------------------|
|--(0)--0--0---0--0--0--3-|--(3)--3--3---3--3---3--10-|
|--(0)--0--0---0--0--0--3-|--(3)--3--3---3--3---3---8-|
|--(0)--0--0---0--0--0--3-|--(3)--3--3---3--3---3---8-|
|
|-------------------------|---------------------------|
|-------------------------|---------------------------|
|-(14)-14-14--14-14-15-14-|-(14)-14-14--14-15-(15)-17-|
|-------x--x---x--x--x--x-|-------x--x---x--x-------x-|
|-(12)-12-12--12-12-13-12-|-(12)-12-12--12-13-(13)-15-|
|-------------------------|---------------------------|


                         C5                                D5
|---------------------------|---------------------------------|
|---------------------------|---------------------------------|
|---------------------------|---------------------------------|
|-(10)-10-10--10-10-(10)-10-|-(10)-10--10--10--10--10--10---0-|
|--(8)--8--8---8--8--(8)-10-|-(10)-10--10--10--10--10--10---0-|
|--(8)--8--8---8--8--(8)-10-|-(10)-10--10--10--10--10--10---0-|
|
|---------------------------|---------------------------------|
|---------------------------|---------------------------------|
|-(17)-17-17--17-19------17-|-(17)-15-(15)-14-(14)-12-(12)-14-|
|-------x--x---x--x-------x-|-------x-------x-------x-------x-|
|-(15)-15-15--15-17------15-|-(15)-13-(13)-12-(12)-10-(10)-12-|
|---------------------------|---------------------------------|


                                                To Coda
       D5                F5                            Bbsus2
|---------------------------|-----------------------------|
|---------------------------|-----------------------------|
|---------------------------|-----------------------------|
|--(0)--0--0-----0--0--0--3-|--(3)--3--3-----3--3---3--10-|
|--(0)--0--0-----0--0--0--3-|--(3)--3--3-----3--3---3---8-|
|--(0)--0--0-----0--0--0--3-|--(3)--3--3-----3--3---3---8-|
|
|---------------------------|-----------------------------|
|---------------------------|-----------------------------|
|-(14)-10-10-10-10-10-10-10-|-(10)-10-10-10-10-12-(12)-10-|
|-------x--x--x--x--x--x--x-|-------x--x--x--x--x-------x-|
|-(12)--8--8--8--8--8--8--8-|--(8)--8--8--8--8-10-(10)--8-|
|---------------------------|-----------------------------|


                                            To Dbl. Coda
                            C5                          A5
|------------------------------|--------------------------|
|------------------------------|--------------------------|
|------------------------------|--------------------------|
|-(10)-10-10----10--10-(10)-10-|-(10)-10-10-10-10-10-10-7-|
|--(8)--8--8-----8---8--(8)-10-|-(10)-10-10-10-10-10-10-7-|
|--(8)--8--8-----8---8--(8)-10-|-(10)-10-10-10-10-10-10-7-|
|
|------------------------------|--------------------------|
|------------------------------|--------------------------|
|-(10)--9-(9)-7-(7)--5--(5)--5-|--(5)--5--5--5--5--5--5---|
|-------x-----x------x-------x-|-------x--x--x--x--x--x---|
|--(8)--7-(7)-5-(5)--3--(3)--3-|--(3)--3--3--3--3--3--3-0-|
|------------------------------|------------------------0-|


                            D.S. al Coda
                  Bb5                   D5
|---------------------|-------------------||
|---------------------|-------------------||
|---------------------|-------------------||
|-(7)-7-7-7-7-7-7--8--|-(8)-8-8-8-8-8-8-0-||
|-(7)-7-7-7-7-7-7--8--|-(8)-8-8-8-8-8-8-0-||
|-(7)-7-7-7-7-7-7--8--|-(8)-8-8-8-8-8-8-0-||
|
|---------------------|-------------------||
|---------------------|-------------------||
|---------------------|-------------------||
|-----------3-2-------|-------2---5-3-2-0-||
|-(0)-0-3-0-----3-----|-----3---3-------0-||
|-(0)-------------[3]-|-(3)-------------0-||


  &
  Bbsus2                    C5
|------------------------------|---------------------------||
|------------------------------|---------------------------||
|------------------------------|---------------------------||
|-(10)-10-10----10--10-(10)-10-|-(10)-10-10-10-10-10-10-10-||
|--(8)--8--8-----8---8--(8)-10-|-(10)-10-10-10-10-10-10-10-||
|--(8)--8--8-----8---8--(8)-10-|-(10)-10-10-10-10-10-10-10-||
|
|------------------------------|---------------------------||
|------------------------------|---------------------------||
|-(10)--9-(9)-7-(7)--5--(5)--5-|--(5)--5--5--5--5--5--5--5-||
|-------x-----x------x-------x-|-------x--x--x--x--x--x--x-||
|--(8)--7-(7)-5-(5)--3--(3)--3-|--(3)--3--3--3--3--3--3--3-||
|------------------------------|---------------------------||

[ Tab from: http://www.guitartabs.cc/tabs/a/atreyu/right_side_of_the_bed_tab_ver_10.html ]
 Interlude
  A5                      Bb5
                           PM------|                 PM------|
|----------|------------|-------------------------|-------------------------|
|----------|------------|-------------------------|-------------------------|
|----------|------------|-------------------------|-------------------------|
|-7--------|-(7)--------|--------------8--8--8--8-|--------------8--8--8--8-|
|-7--------|-(7)--------|--8--8--8--8--8--8--8--8-|--8--8--8--8--8--8--8--8-|
|-7--------|-(7)--------|--8--8--8--8--8--8--8--8-|--8--8--8--8--8--8--8--8-|
|
|----------|------------|-------------------------|-------------------------|
|----------|------------|-------------------------|-------------------------|
|-9--------|-(9)--------|-10-10-10-10-10-10-10-10-|-10-10-10-10-10-12-12-12-|
|-x--------|------------|--x--x--x--x--x--x--x--x-|--x--x--x--x--x--x--x--x-|
|-7--------|-(7)--------|--8--8--8--8--8--8--8--8-|--8--8--8--8--8-10-10-10-|
|----------|------------|-------------------------|-------------------------|


  C5
   PM------|                 PM------|
|-------------------------|-------------------------|
|-------------------------|-------------------------|
|-------------------------|-------------------------|
|-------------10-10-10-10-|-------------10-10-10-10-|
|-10-10-10-10-10-10-10-10-|-10-10-10-10-10-10-10-10-|
|-10-10-10-10-10-10-10-10-|-10-10-10-10-10-10-10-10-|
|
|-------------------------|-------------------------|
|-------------------------|-------------------------|
|--9--9--9--9--9--9--9--9-|--9--9--9--9--9--9--9--9-|
|--x--x--x--x--x--x--x--x-|--x--x--x--x--x--x--x--x-|
|--7--7--7--7--7--7--7--7-|--7--7--7--7--7--7--7--7-|
|-------------------------|-------------------------|


  D5
   PM------|                 PM------|
|-------------------------|-------------------------|
|-------------------------|-------------------------|
|-------------------------|-------------------------|
|-------------12-12-12-12-|-------------12-12-12-12-|
|-12-12-12-12-12-12-12-12-|-12-12-12-12-12-12-12-12-|
|-12-12-12-12-12-12-12-12-|-12-12-12-12-12-12-12-12-|
|
|-------------------------|-------------------------|
|-------------------------|-------------------------|
|-10-10-10-10-10-10-10-10-|--9--9--9--9--9--9--9--9-|
|--x--x--x--x--x--x--x--x-|--x--x--x--x--x--x--x--x-|
|--8--8--8--8--8--8--8--8-|--7--7--7--7--7--7--7--7-|
|-------------------------|-------------------------|


  F5
   PM------|                 PM------|
|-------------------------|-------------------------|
|-------------------------|-------------------------|
|-------------------------|-------------------------|
|-------------15-15-15-15-|-------------15-15-15-15-|
|-15-15-15-15-15-15-15-15-|-15-15-15-15-15-15-15-15-|
|-15-15-15-15-15-15-15-15-|-15-15-15-15-15-15-15-15-|
|
|-------------------------|-------------------------|
|-------------------------|-------------------------|
|--7--7--7--7--7--7--7--7-|--7--7--7--7--7--7--7--7-|
|--x--x--x--x--x--x--x--x-|--x--x--x--x--x--x--x--x-|
|--5--5--5--5--5--5--5--5-|--5--5--5--5--5--5--5--5-|
|-------------------------|-------------------------|


  Bb5
   PM------|                 PM------|
|-------------------------|-------------------------|
|-------------------------|-------------------------|
|-------------------------|-------------------------|
|--------------8--8--8--8-|--------------8--8--8--8-|
|--8--8--8--8--8--8--8--8-|--8--8--8--8--8--8--8--8-|
|--8--8--8--8--8--8--8--8-|--8--8--8--8--8--8--8--8-|
|
|-------------------------|-------------------------|
|-------------------------|-------------------------|
|-10-10-10-10-10-10-10-10-|-10-10-10-10-10-14-14-14-|
|--x--x--x--x--x--x--x--x-|--x--x--x--x--x--x--x--x-|
|--8--8--8--8--8--8--8--8-|--8--8--8--8--8-12-12-12-|
|-------------------------|-------------------------|


  H.=H
  C5
   PM------------------|
|-------------------------|-------------------------||
|-------------------------|-------------------------||
|-------------------------|-------------------------||
|-------------------------|-10-10-10-10-10-10-10-10-||
|-10-10-10-10-10-10-10-10-|-10-10-10-10-10-10-10-10-||
|-10-10-10-10-10-10-10-10-|-10-10-10-10-10-10-10-10-||
|
|-------------------------|-------------------------||
|-------------------------|-------------------------||
|-14-15-12-12-12-12-12-12-|-12-12-12-12-12-12-12-12-||
|--x--x--x--x--x--x--x--x-|--x--x--x--x--x--x--x--x-||
|-12-13-10-10-10-10-10-10-|-10-10-10-10-10-10-10-10-||
|-------------------------|-------------------------||


 Bridge
  Slower Q=155
  D5         C5  Bb5          F5E5D5             C5  Bb5             C5    D5
  Gtr I
                              PM|          PM--|
|------------------|----------------|------------------|----------------------|
|------------------|----------------|------------------|----------------------|
|------------------|----------------|------------------|----------------------|
|-12-12-12---10--8-|-(8)--8-------0-|-(0)--------10--8-|-(8)-8-8-8-8s10-10s12-|
|-12-12-12---10--8-|-(8)--8---3-2-0-|-(0)--0-0-0-10--8-|-(8)-8-8-8-8s10-10s12-|
|-12-12-12---10--8-|-(8)--8---3-2-0-|-(0)--0-0-0-10--8-|-(8)-8-8-8-8s10-10s12-|


  D5         C5  Bb5          F5E5A5                  Bb5             F5
  Gtr I
                              PM|
|------------------|----------------|-------------------|-------------------||
|------------------|----------------|-------------------|-------------------||
|------------------|----------------|-------------------|-------------------||
|-12-12-12---10--8-|-(8)--8-------7-|-(7)-7-7-7-7-7-7-8-|-(8)-8-8-8-8-3-3-3-||
|-12-12-12---10--8-|-(8)--8---3-2-7-|-(7)-7-7-7-7-7-7-8-|-(8)-8-8-8-8-3-3-3-||
|-12-12-12---10--8-|-(8)--8---3-2-7-|-(7)-7-7-7-7-7-7-8-|-(8)-8-8-8-8-3-3-3-||
|
| Gtr II
|------------------|----------------|-------------------|-------------------||
|------------------|----------------|-------------------|-------------------||
|------------------|----------------|-------------------|-------------------||
|--0--0--0---------|--------------7-|-(7)-7-7-7-7-7-7-8-|-(8)-8-8-8-8-3-3-3-||
|--0--0--0---------|--------------7-|-(7)-7-7-7-7-7-7-8-|-(8)-8-8-8-8-3-3-3-||
|--0--0--0---------|--------------7-|-(7)-7-7-7-7-7-7-8-|-(8)-8-8-8-8-3-3-3-||


  D5         C5  Bb5          F5E5D5             C5  Bb5             C5    D5
  Gtrs I, II
                              PM|          PM--|
|------------------|----------------|------------------|----------------------|
|------------------|----------------|------------------|----------------------|
|------------------|----------------|------------------|----------------------|
|-12-12-12---10--8-|-(8)--8-------0-|-(0)--------10--8-|-(8)-8-8-8-8s10-10s12-|
|-12-12-12---10--8-|-(8)--8---3-2-0-|-(0)--0-0-0-10--8-|-(8)-8-8-8-8s10-10s12-|
|-12-12-12---10--8-|-(8)--8---3-2-0-|-(0)--0-0-0-10--8-|-(8)-8-8-8-8s10-10s12-|


  D5             Bb5          F5E5D5             C5  Bb5             F5
                              PM|          PM--|                     PM--|
|------------------|----------------|------------------|-------------------|
|------------------|----------------|------------------|-------------------|
|------------------|----------------|------------------|-------------------|
|-12-12-12---10--8-|-(8)--8-------0-|-(0)--------10--8-|-(8)-8-8-8-8-------|
|-12-12-12---10--8-|-(8)--8---3-2-0-|-(0)--0-0-0-10--8-|-(8)-8-8-8-8-3-3-3-|
|-12-12-12---10--8-|-(8)--8---3-2-0-|-(0)--0-0-0-10--8-|-(8)-8-8-8-8-3-3-3-|


  H=H
  A5                      Bb5         N.C.
  Gtr I
|----------|------------|-----------|----------||
|----------|------------|-----------|----------||
|----------|------------|-----------|----------||
|-7--------|-(7)--------|--8--------|----------||
|-7--------|-(7)--------|--8--------|----------||
|-7--------|-(7)--------|--8--------|----------||
|
| Gtr II
|                                      ~~~~~
|----------|------------|-----------|----------||
|----------|------------|-----------|-10-------||
|-9--------|-(9)--------|-10--------|-12b14----||
|-x--------|------------|--x--------|----------||
|-7--------|-(7)--------|--8--------|----------||
|----------|------------|-----------|----------||


 Guitar Solo
  Faster Q=178
  D5
|---------------------------|---------------------------|
|---------------------------|---------------------------|
|---------------------------|---------------------------|
|-12-12-12-12-(12)-12-12-12-|-12-12-(12)-12-12-12-12-12-|
|-12-12-12-12-(12)-12-12-12-|-12-12-(12)-12-12-12-12-12-|
|-12-12-12-12-(12)-12-12-12-|-12-12-(12)-12-12-12-12-12-|
|
|---------------------------|---------------------------|
|-13p10----11p=10-----13p10-|----11p=10-----11p10-------|
|-------10---------10-------|-10---------10-------12p10-|
|---------------------------|---------------------------|
|---------------------------|---------------------------|
|---------------------------|---------------------------|


  Bb5
|--------------------------|-----------------------------|
|--------------------------|-----------------------------|
|--------------------------|-----------------------------|
|--8--8--8--8-(8)--8--8--8-|--8--8-(8)--8--8-----8--8--8-|
|--8--8--8--8-(8)--8--8--8-|--8--8-(8)--8--8-----8--8--8-|
|--8--8--8--8-(8)--8--8--8-|--8--8-(8)--8--8-----8--8--8-|
|
|--------------------------|-----------------------------|
|-13p10----11p10-----13p10-|----11p10-----10h11p10-------|
|-------10--------10-------|-10--------10----------12p10-|
|--------------------------|-----------------------------|
|--------------------------|-----------------------------|
|--------------------------|-----------------------------|


  D5
|---------------------------|---------------------------|
|---------------------------|---------------------------|
|---------------------------|---------------------------|
|-12-12-12-12-(12)-12-12-12-|-12-12-(12)-12-12-12-12-12-|
|-12-12-12-12-(12)-12-12-12-|-12-12-(12)-12-12-12-12-12-|
|-12-12-12-12-(12)-12-12-12-|-12-12-(12)-12-12-12-12-12-|
|
|---------------------------|---------------------------|
|-13p10----11p=10-----13p10-|----11p=10-----11p10-------|
|-------10---------10-------|-10---------10-------12p10-|
|---------------------------|---------------------------|
|---------------------------|---------------------------|
|---------------------------|---------------------------|


  Bb5
|--------------------------------|------------------------|
|--------------------------------|------------------------|
|--------------------------------|------------------------|
|--8-----8---8--8-(8)--8---8---8-|--8----8--(8)-8-8-8-8-8-|
|--8-----8---8--8-(8)--8---8---8-|--8----8--(8)-8-8-8-8-8-|
|--8-----8---8--8-(8)--8---8---8-|--8----8--(8)-8-8-8-8-8-|
|
|                                            ~~~~
|-----------------13-------------|------------------------|
|-13b15====(13)-------13r(13)-11-|-13b15---(13)-----------|
|--------------------------------|------------------------|
|--------------------------------|------------------------|
|--------------------------------|------------------------|
|--------------------------------|------------------------|


  D5
|-------------------------------------------------------|-------------------------------------|
|-------------------------------------------------------|-------------------------------------|
|-------------------------------------------------------|-------------------------------------|
|-12----12----12----12----(12)--------12----12----12----|-12-12-(12)--12---12--12-12-12-------|
|-12----12----12----12----(12)--------12----12----12----|-12-12-(12)--12---12--12-12-12-------|
|-12----12----12----12----(12)--------12----12----12----|-12-12-(12)--12---12--12-12-12-------|
|
|                                                                      ~~~~~~~~
|-13-12----10-------------------------------------------|-------------------------------------|
|-------------13-12----10-------------------------------|-------------------------------------|
|--------------------------12b14r(12)----10-12-10-------|-10-------------------------12b13.5==|
|----------------------------------------------------12-|----12-(12)-[12]-(12)----------------|
|-------------------------------------------------------|-------------------------------------|
|-------------------------------------------------------|-------------------------------------|


  Bb5
|---------------------------|----------------------------|
|---------------------------|----------------------------|
|---------------------------|----------------------------|
|---8--8--8--8-(8)--8--8--8-|--8--8-(8)--8--8--8---8--8--|
|---8--8--8--8-(8)--8--8--8-|--8--8-(8)--8--8--8---8--8--|
|---8--8--8--8-(8)--8--8--8-|--8--8-(8)--8--8--8---8--8--|
|
|--------10-----------10----|-12----10-------------------|
|--------------13-----------|--------------13------------|
|-(12)------12-----12----12-|----12-----12----12r(12)----|
|---------------------------|----------------------------|
|---------------------------|----------------------------|
|---------------------------|----------------------------|


  D5
|--------------------------------------------------|--------------------------------------------------|
|--------------------------------------------------|--------------------------------------------------|
|--------------------------------------------------|--------------------------------------------------|
|-12----12----12----12----(12)---12----12----12----|-12----12----(12)---12----12----12----12----12----|
|-12----12----12----12----(12)---12----12----12----|-12----12----(12)---12----12----12----12----12----|
|-12----12----12----12----(12)---12----12----12----|-12----12----(12)---12----12----12----12----12----|
|
|  T           T            T           T             T            T           T           T
|--------------------------------------------------|--------------------------------------------------|
|-17p10h===13-17p10h===13--17p10h===13-17p10h===13-|-18p10h===13--18p10h===13-18p10h===13-18p10h===13-|
|--------------------------------------------------|--------------------------------------------------|
|--------------------------------------------------|--------------------------------------------------|
|--------------------------------------------------|--------------------------------------------------|
|--------------------------------------------------|--------------------------------------------------|


  Bb5
                                             PM----|
|----------------------------|--------------------------||
|----------------------------|--------------------------||
|----------------------------|--------------------------||
|--8--------8--------8-------|--(8)-8-(8)---------------||
|--8--------8--------8-------|--(8)-8-(8)----8-8-8-8----||
|--8--------8--------8-------|--(8)-8-(8)----8-8-8-8----||
|
|----------------------------|--------------------------||
|-11-10----------------------|--------------------------||
|-------10-12--12b14---12b14-|-(12)---12p10-12----------||
|----------------------------|--------------------------||
|----------------------------|--------------------------||
|----------------------------|--------------------------||


 Bridge
  a Tempo Q=173
  D5  DmD5C D5  Bb5        C5            D5
|-----------------|--------------------------|
|-----------------|--------------------------|
|-----------------|--------------------------|
|-----------------|--------------------------|
|-----------------|--------------------------|
|-----------------|--------------------------|
|
| PM|                                    PM---
|-----------------|--------------------------|
|-----6---5-------|--------------------------|
|-----7---5-------|--------------------------|
|---------------8-|-(8)-8--10-(10)-10-10-----|
|-0-0---0---0-0-8-|-(8)-8--10-(10)-10-10-0-0-|
|-0-0---0---0-0-8-|-(8)-8--10-(10)-10-10-0-0-|


      DmD5C D5  F5            Bb5        D5
|------------------|---------------------------|
|------------------|---------------------------|
|------------------|---------------------------|
|------------------|---------------------0-----|
|------------------|---------------------0-----|
|------------------|----------12\--------0-----|
|
|---|                                    PM|
|------------------|---------------------------|
|-----6---5--------|---------------------------|
|-----7---5-----10-|-(10)-10-------------------|
|---------------10-|-(10)-10---8--(8)--8-------|
|-0-0---0---0-0--8-|--(8)--8---8--(8)--8-0-0---|
|-0-0---0---0-0----|-----------8--(8)--8-0-0---|


  D5    DmD5C D5  Bb5        C5            A5
|-------------------|------------------------|
|-------------------|------------------------|
|-------------------|------------------------|
|-(0)---------------|-(0)------------------7-|
|-(0)---------------|-(0)------------------7-|
|-(0)---------------|-(0)------------------7-|
|
|  PM-|
|-------------------|------------------------|
|-------6---5-------|------------------------|
|-------7---5-------|------------------------|
|-----------------8-|-(8)-8--10-(10)-10-10---|
|--0--0---0---0-0-8-|-(8)-8--10-(10)-10-10-0-|
|--0--0---0---0-0-8-|-(8)-8--10-(10)-10-10-0-|


                     D.S.S. al Dbl. Coda
                  Bb5                   D5
|---------------------|--------------------||
|---------------------|--------------------||
|---------------------|--------------------||
|-(7)--------------8--|-(8)--------------0-||
|-(7)--------------8--|-(8)--------------0-||
|-(7)--------------8--|-(8)--------------0-||
|
|---------------------|--------------------||
|---------------------|--------------------||
|---------------------|-----------------14-||
|-----------3-2-------|-------2---5-3-2--x-||
|-(0)-0-3-0-----3-[1]-|-(1)-3---3-------12-||
|-(0)-----------------|--------------------||


 Outro
  &&
  A5              Bb5                   D5
|---------------------|-------------------|-------------|-----*|
|---------------------|-------------------|-------------|-----*|
|---------------------|-------------------|-------------|-----*|
|-(7)-7-7-7-7-7-7--8--|-(8)-8-8-8-8-8-8-0-|-(0)--0------|-----*|
|-(7)-7-7-7-7-7-7--8--|-(8)-8-8-8-8-8-8-0-|-(0)--0------|-----*|
|-(7)-7-7-7-7-7-7--8--|-(8)-8-8-8-8-8-8-0-|-(0)--0------|-----*|
|
|---------------------|-------------------|-------------|-----*|
|---------------------|-------------------|-------------|-----*|
|---------------------|-------------------|-------------|-----*|
|-----------3-2-------|-------2---5-3-2-0-|-(0)--0------|-----*|
|-(0)-0-3-0-----3-[1]-|-(1)-3---3-------0-|-(0)--0------|-----*|
|-(0)-----------------|-----------------0-|-(0)--0------|-----*|
Comments