Atreyu - Right Side Of The Bed Chords & Tabs

 

Right Side Of The Bed Chords & Tabs

Atreyu Chords & Tabs

Version: 1 Type: Tab 2 ratings
1 star 2 stars 3 stars 4 stars 5 stars
comments

Right Side Of The Bed Tab

   
ATREYU - Right Side of the Bed
tabbed by Nate Greuel

Symbol Guide:
h- hammer on
p- pull off
t- tap
b/r- bend/release
*- artificial harmonic
palm mute when it sounds right (a lot)


Tune guitars down 1 full step Drop-D

Intro
C-------------------------------------------------------------
A-----------6-5-------------------------6-5---10-10-----------
F-----------5-5----3-3--5-5-------------5-5---10-10-----------
C--00-0-0---7-5----3-3--5-5----00-0-0---7-5---8--8---8-8------
D--00-0-0----------1-1--3-3----00-0-0----------------8-8------
C--00-0-0----------------------00-0-0----------------8-8------


C-----------------------------------------------------------------------------
A-----------6-5---------------------------------------------------------------
F-----------5-5----3-3--5-5---2------------------------------------------------
C--0-0-0-0--7-5----3-3--5-5---2----2----3p2---3*----2---5p3-2--0---------------
D--0-0-0-0---------1-1--3-3---0--0---0------3-----0---0--------0---------------
C--0-0-0-0-----------------------------------------------------0---------------


Verse
C---------------------------
A---------------------------
F----------------3-3--------
C--0-0----0-0----3-3--3-3---
D--0-0----0-0----1-1--3-3---
C--0-0----0-0---------3-3---

Verse pt. 2 (played over verse pt. 1)
C------------------------------------------------
A------------------------------------------------
F------------------------------------------------
C--0---------0----3p2---0----------5-5-3-2-0-----
D--0--3-3h5--0--3----3--0--3-3h5p3---------0-----
C--0---------0----------0------------------0-----

Chorus
C---------------|--------------------------------------
A---------------|--------------------------------------
F--------3--5---|--2-----------------------------------
C--0--3--3--5---|--2----2----3p2---3*----2---5p3-2--0--
D--0--3--1--3---|--0--0---0------3-----0---0--------0--
C--0--3---------|-----------------------------------0--

Bridge (played over power chords)
C---------------------------
A---------------------------
F--9--10--12--9--10--9--7---
C---------------------------
D--7--8---10--7--8---7--5---
C---------------------------

Part before solo
C-----------------------------------|-----
A-----------------------------------|-----
F---777--5--3------------5--3---5---|-2-3-
C---777--5--3--3-2--000--5--3---5---|-2-3-
D---555--3--1--3-2--000--3--1---3---|-0-1-
C--------------3-2--000-------------|-----
[ Tab from: http://www.guitartabs.cc/tabs/a/atreyu/right_side_of_the_bed_tab.html ]
SOLO
C---------------------------------------------------------------
A---13--------13p10----11p10----13p10----11p10-----11p10--------
F---12b14~----------10-------10-------10-------10--------12p10--
C---------------------------------------------------------------
D---------------------------------------------------------------
C---------------------------------------------------------------

C------------------------------------------------------
A-----13p10----11p10----13p10----11p10-----10h11p10----
F-----------10-------10-------10-------10--------12p10-
C------------------------------------------------------
D------------------------------------------------------
C------------------------------------------------------

C----------------------------------------------------------------13---------------------
A-----13p10----11p10----13p10----11p10-----10h11p10--------13b15----13b15r13-11-13b15~--
F-----------10-------10-------10-------10--------12p10----------------------------------
C---------------------------------------------------------------------------------------
D---------------------------------------------------------------------------------------
C---------------------------------------------------------------------------------------
							*hold bend and tap-
C-----13p12p10-----------------------------------------------------------------------------
A---------------13p11p10-------------------------------------------------------------------
F------------------------12b14r12-10-12p10----10-----------12b14*---t17p12--t15p12--t17p12-
C------------------------------------------12----12-12~------------------------------------
D------------------------------------------------------------------------------------------
C------------------------------------------------------------------------------------------


C----------------------------------------------------------------------------------
A----------------------------------------------------------------------------------
F---t19p12--t17p12--t15p(12release bend)---t14h17h21-t14h17h21-t14h17h21-t14h17h21-
C----------------------------------------------------------------------------------
D----------------------------------------------------------------------------------
C----------------------------------------------------------------------------------

C---------------------------------------------------------------------------------
A---------------------------------------------------------------------------------
F---t14h17h22-t14h17h22-t14h17h22-t14h17h22---15p14-------------------------------
C---------------------------------------------------15-17-17b19-17b19r17-15--17~--
D---------------------------------------------------------------------------------
C---------------------------------------------------------------------------------



Comments/corrections to hot_blonde_guy_2501@yahoo.com.. Thanks, enjoy! ATREYU ROCKS
Comments