Atreyu - Right Side Of The Bed Chords & Tabs

 

Right Side Of The Bed Chords & Tabs

Atreyu Chords & Tabs

Version: 4 Type: Bass Tab

Right Side Of The Bed Bass Tab

Artist: Atreyu
Song:   Right Side Of The Bed
Album:  The Curse
Tabber: Christof (ToYD)


intro (guitar enters first.. all the bass and rhythm do is this)
F|----------------------------------------------------------------------|
C|----------------------------------------------------------------------|
G|----------------------------------------------------------------------|
C|--0-0-0-0-------------------------------------------------------------|

F|----------------------------------------------------------------------|
C|----------------------------------------------------------------------|
G|----------------------------------------------------------------------|
C|----------------7-7-7-7-7-7-7-8-8-8-8-8-8-8---------------------------|

F|----------------------------------------------------------------------|
C|----------------------------------------------------------------------|
G|----------5--3--1-1-1-3-3-3----------5--3--8-8-8----------------------|
C|--0-0-0-0--------------------0-0-0-0-------------8-8-8----------------|

F|----------------------------------------------------------------------|
C|----------------------------------2---3p2---3---2---5p3-2-------------|
G|----------5--3--1-1-1-3-3-3-0-0-----0-----3---0---0-------------------|
C|--0-0-0-0-------------------------------------------------------------|

verse (4x)
F|----------------------------------------------------------------------|
C|----------------------------------------------------------------------|
G|----------------------------------------------------------------------|
C|--0-0----0--0-0--0-0-0-8-8-3-3--0-0---0--0-0--0-0-0-8-8-3-3-0-0-------|

chorus (3x)
F|----------------------------------------------------------------------|
C|----------------------------------------------------------------------|
G|------------------------1-1-1-1-1-1-3-3-3-3-3-3-----------------------|
C|--0-0-0-0-0-3-3-3-3-3-3-----------------------------------------------|

4th time play this
F|----------------------------------------------------------------------|
C|--------------------------------------------------2---3p2---3---2---5p3-2|
G|-----------------------1-1-1-1-1-1-3-3-3-3-3-3--0---0-----3---0---0--|
C|-0-0-0-0-0-3-3-3-3-3-3-----------------------------------------------|

verse (4x)
F|----------------------------------------------------------------------|
C|----------------------------------------------------------------------|
G|----------------------------------------------------------------------|
C|--0-0----0--0-0--0-0-0-8-8-3-3--0-0---0--0-0--0-0-0-8-8-3-3-0-0-------|

chorus (3x)
F|----------------------------------------------------------------------|
C|----------------------------------------------------------------------|
G|------------------------1-1-1-1-1-1-3-3-3-3-3-3-----------------------|
C|--0-0-0-0-0-3-3-3-3-3-3-----------------------------------------------|
[ Tab from: http://www.guitartabs.cc/tabs/a/atreyu/right_side_of_the_bed_btab_ver_4.html ]
4th time play this
F|----------------------------------------------------------------------|
C|----------------------------------------------------------------------|
G|------------------------1-1-1-1-1-1-3-3-3-3-3-3--0~---------------------|
C|--0-0-0-0-0-3-3-3-3-3-3-----------------------------------------------|

interlude (1x)
F|----------------------------------------------------------------------|
C|----------------------------------------------------------------------|
G|----------------------------------------------------------------------|
C|---6~--7-7-7-7-7-7-\12/-6-6-6-6-6-6-6-7-7-7-7-5-5-5-5-3-3-3-3---------|

F|----------------------------------------------------------------------|
C|----------------------------------------------------------------------|
G|----------------------------------------------------------------------|
C|--7-7-7-7-8-8-9-10-12-10~~--------------------------------------------|


F|----------------------------------------------------------------------|
C|----------------------------------------------------------------------|
G|----------------------------------------------------------------------|
C|--12-12-12--------------------------------12-12-12--------------------|
(2x)
F|----------------------------------------------------------------|
C|----------------------------------------------------------------|
G|---5-5-5--3--1------------3--1--3-3-3-3-------------------------|
C|---------------3-2-0-0-0----------------------------------------|

Pre-Solo
F|-------------------|
C|-------------------|
G|---0~-------1~-----|
C|-------------------|

during guitar solo (repeat all through the solo)
F|----------------------------------------------------------------------|
C|----------------------------------------------------------------------|
G|--5-5-5-5-5-5-5-5-5-5-5-5-5-5-5-5-1-1-1-1-1-1-1-1-1-1-1-1-1-1-1-1-----|
C|----------------------------------------------------------------------|
(Guitar does intro again.)
F|----------------------------------------------------------------------|
C|----------------------------------------------------------------------|
G|----------------------------------------------------------------------|
C|---------------------------------//////////////////0~-----------------|

F|----------------------------------------------------------------------|
C|------2---3p2---3---2---5p3-2-----------------------------------------|
G|--0-0---0-----3---0---0-----------------------------------------------|
C|----------------------------------------------------------------------|

Chorus (4x)
F|----------------------------------------------------------------------|
C|----------------------------------------------------------------------|
G|------------------------1-1-1-1-1-1-3-3-3-3-3-3-----------------------|
C|--0-0-0-0-0-3-3-3-3-3-3-----------------------------------------------|

Outro

F|----------------------------------------------------------------------|
C|----------------------------------------------------------------------|
G|---0-0-0-0-0-0-0-1-1-1-1-1-1-1----------------------------------------|
C|--------------------------------0--0----------------------------------|


Thank ya. rate please :]