Atreyu - Our Sick Story Thus Far Chords & Tabs

 

Our Sick Story Thus Far Chords & Tabs

Atreyu Chords & Tabs

Version: 1 Type: Tab

Our Sick Story Thus Far Tab

   
drop c

Intro Guitar 1
----------------------------------------|
----------------------------------------|
--7-10-9-7---3-7-5--10-14-12-10---9-7---|
----------------------------------------|
--5--8-7-5---1-5-3---8-12-10--8---7-5---|
----------------------------------------|

---------------------------------------------|
---------------------------------------------|
-2-10-9-7-2-7-55---2-10-9-7-2-2-00-2-5-2-----|
---------------------------------------------|
---------------------------------------------|
---------------------------------------------|

----------------------------------------------------|
----------------------------------------------------|
-2-10-9-7-9--9-10-7--12-10-9-10--10-12p10p9h10------|
----------------------------------------------------|
----------------------------------------------------|
----------------------------------------------------|

------------------------------------------------------------10b----|
---------1011h13-13-13p11p10h11-11-11p10---------------10p11-------|
-9h10h12-------------------------------12p10p9h10h12---------------|
-------------------------------------------------------------------|
-------------------------------------------------------------------|
-------------------------------------------------------------------|

Intro Guitar 2
---------------------------------------------------------|
---------------------------------------------------------|
--77777777-99999999-7-7-7-7-9-9-7-7----------------------|
---------------------------------------------------------|
--55555555-77777777-5-5-5-5-7-7-5-5----------------------|
---------------------------------------------------------|

---------------------------------------------------------------------|
---------------------------------------------------------------------|
-7-9-7-10101010-10101010-99-77---7-9-7-10101010-10101010-99-14-14----|
-------------------------------0-------------------------------------|
-5-7-5--8-8-8-8--8-8-8-8-77-55-0-5-7-5--8-8-8-8--8-8-8-8-77-12-12----|
-------------------------------0-------------------------------------|
[ Tab from: http://www.guitartabs.cc/tabs/a/atreyu/our_sick_story_thus_far_tab.html ]
Verse
---------------------------------------------------------|
---------------------------------------------------------|
------------------------------------14-10-7--------------|
-000-------000-------000000-000000-----------------------|
-000-------000-------000000-000000--12--8-5--------------|
-000-7b-7b-000-7b-7b-000000-000000-----------------------|
 ...       ...       ...... ......
---------------------------------------------------------|
---------------------------------------------------------|
---------------------------------------------------------|
-000-------000-------000000------------------------------|
-000-------000-------000000-333333-----------------------|
-000-7b-7b-000-7b-7b-000000--------444444-555555-111111--|
 ...       ...       ......

Chorus (one guitar repeats intro guitar 2)
---------------------------------------------------------|
---------------------------------------------------------|
-----------33333333----------33333333--------------------|
-00000000--33333333-00000000-33333333--------------------|
-00000000--11111111-00000000-11111111--------------------|
-00000000-----------00000000-----------------------------|

Repeat Verse
Repeat Chorus

Bridge
---------------------------------------------------------|
---------------------------------------------------------|
---------------------------------------------------------|
-000-----000-----000000-00-----00-------8p7---7----------|
-000-3-5-000-3-5-000000-00-7-8-00-8-10------10-10p8------|
-000-----000-----000000-00-----00------------------------|
 ..      ...     ...... ..     ..

Still workin on the solo, but don't worry i'll have it soon.

Bridge continued
---------------------------------------------------------|
---------------------------------------------------------|
-3333---------------3333---------------------------------|
-3333-3333----------3333-3333-00000000-------------------|
-1111-3333-00000000-1111-3333-00000000-------------------|
------3333-00000000------3333-00000000-------------------|

---------------------------------------------------------|
---------------------------------------------------------|
---------------------------------------------------------|
-000000-0000-0000-00--000000-0000-0000-00----------------|
-000000-0000-0000-00--000000-0000-0000-00----------------|
-000000-0000-0000-00--000000-0000-0000-00----------------|
 ...... .... .... ..  ...... .... .... ..

Repeat chorus
Repeat end of Bridge