Atreyu - Nevadas Grace Chords & Tabs

 

Nevadas Grace Chords & Tabs

Atreyu Chords & Tabs

Version: 1 Type: Bass Tab 0 ratings
1 star 2 stars 3 stars 4 stars 5 stars
comments

Nevadas Grace Bass Tab

   
Band:Atreyu
Song:Nevada's Grace
Album:The Curse
Type of Tab: Bass (Interlude Solo)
Tuning: F C G C (Low To High)
Tabbed By: Mike Morrow (theremembranceballad@hotmail.com)
Corrections? Email Me!
--------------------------------------------------------------------------------
This solo sounded very appealing to me so I decided to tab it.I'm almost positive this 
is 100% correct.


Interlude (1:49)
F|-----------|
C|---7~---10~| x2
G|--7----7---|
C|-7----7----|

[ Tab from: http://www.guitartabs.cc/tabs/a/atreyu/nevadas_grace_btab.html ]
(2:04)
F|---------------------------10/1210---|
C|---7~-7-5-3~---10~-10/1210-----------|
G|--7-----------7----------------------|
C|-7-----------7-----------------------|


(2:12)
F|------------------------10/1210-------|
C|---7~-7-5-3~---10~---------------10---|
G|--7-----------7-----------------------|
C|-7-----------7------------------------|


(2:19)
F|------------------------10/1210------|
C|---7~-7-5-3~---10~--------------10---|
G|--7-----------7----------------------|
C|-7-----------7-----------------------|


(2:26)
F|-------------------------|
C|---7~-7-5-3~---10~--10---|
G|--7-----------7----------|
C|-7-----------7-----------|
Comments