Atreyu - My Fork In The Road(your Knife In My Back) Chords & Tabs

 

My Fork In The Road(your Knife In My Back) Chords & Tabs

Atreyu Chords & Tabs

Version: 1 Type: Tab 3 ratings
1 star 2 stars 3 stars 4 stars 5 stars
comments

My Fork In The Road(your Knife In My Back) Tab

Ive done tons of tabs by myslef but this is my first tab ive submitted onto the internet
This is the hardest tab Ive done yet and it is VERY Close but may be not perfect
Also there isnt any special marks its just the notes and they’re not timed very well but its just to give you the idea how to play it
INTRO
Guitar 1
E|-------------------------------------------565--------------------------------------------------------
B|--------------------686----------------6--------------------------------------------------------------
G|-----0---787--------------7-8-5-8-7------------------787------------------------5---------------------
D|------8-------8-8-------8---------------------------8---------8-8--787-5-7-8-5---8-787-------X3-------
A|---------------------------------------------------6--------------------------------------------8-----
D|------------------------------------------------------------------------------------------------------

E|-------------------------------------------565--------------------------------------------------------
B|--------------------686----------------6--------------------------------------------------------------
G|-----0---787--------------7-8-5-8-7------------------787----------------------------------------------
D|------8-------8-8-------8---------------------------8---------8-8--787----X1-then riff (Below)--------
A|---------------------------------------------------6--------------------------------------------------
D|------------------------------------------------------------------------------------------------------

E|------------------------------------------------------------------------------------------------------
B|------------------------------------------------------------------------------------------------------
G|----5555577788877710101010108887787-------------------------------------------------------------------
D|-----------------------------------8------------------------------------------------------------------
A|------------------------------------------------------------------------------------------------------
E|------------------------------------------------------------------------------------------------------
Guitar 2
E|------------------------------------------------------------------------------------------------------
B|------------------------------------------------------------------------------------------------------
G|------------------------------------------------------------------------------------------------------
D|---5-------------------------------------------1------------X2----------------------------------------
A|---5-------------------------------------------1------------------------------------------------------
D----5-------------------------------------------1-------------------------------------------------------

E|-------------------------------------------------------------------------------------------------------
B|-------------------------------------------------------------------------------------------------------
G|-------------------------------------------------------------------------------------------------------
D|---5-------1--------5---------------5----------1-------------------------------------------------------
A|---5-------1--------3----X3---------5----------1-------5555577788877710101010108887787------------------
D----5-------1------------------------5----------1--------------------------------------8-----------------
       Strum thru                          strum thru
Verse
Guitar1
E|-----------------------------------------------------------------------------------------------------
B|-----------------------------------------------------------------------------------------------------
G|------77------------887--------------77--------------887---------5323230-------------------------
D|--------8---X4----55-------X4----------8—X4--------55------X3-----------3----------------------------
A|----66-----------------------------66-----------------------------------------------------------
D------------------------------------------------------------------------------------------------------
Guitar2
E|-----------------------------------------------------------------------------------------------------
B|-----------------------------------------------------------------------------------------------------
G|-----------------------------------------------------------------------------------------------------
D|---111------------555-------------111-------------555------------------------------------------------
A|---111----X4------555----X4-------111---X4--------555----X4--------------------------------------
D|---111------------555-------------111-------------555------------------------------------------------

Chorus
Guitar1
E|-----------------------------------------------------------------------------------------------------
B|-----------------------------------------------------------------------------------------------------
G|------------------------------7-5--------------------------------------------------------------------
D|-----5--57-8-8-7-5-7-3-55-44-----7-8-----------------------------------------------------------------
A|-----------------------------------------------------------------------------------------------------
D|-----------------------------------------------------------------------------------------------------
Guitar 2
E|-----------------------------------------------------------------------------------------------------
B|-----------------------------------------------------------------------------------------------------
G|-----------------------------------------------------------------------------------------------------
D|---1----------5---------3------1-------0------3------------------------------------------------------
A|---1----------5---------3------1-------0------3------------------------------------------------------
D|---1----------5---------3------1-------0------3------------------------------------------------------
[ Tab from: http://www.guitartabs.cc/tabs/a/atreyu/my_fork_in_the_roadyour_knife_in_my_back_tab.html ]
Verse2
Guitar 1
E|--------------------------------------------------------------------------------------------------
B|--------------------------------------------------------------------------------------------------
G|-------77-------------887--------------77----------887---------532532------------------------------
D|---------8---X4----55-------X4-----------8—X4----55------X3----------1-----------------------------
A|----66-------------------------------66-----------------------------------------------------------
D|---------------------------------------------------------------------------------------------------
Guitar2
E|-----------------------------------------------------------------------------------------------------
B|--------------------------------66---------------------431431---------------------------------------
G|----------------------------------7------------55-3----------0--------------------------------------
D|--111---------555------------11--------------55------------------------------------------------------
A|--111—X4------555—X4---------11------X4------55------X3---------------------------------------------
D|--111---------555------------11--------------55------------------------------------------------------

Chorus
Same as last time

Refrain
Gtr 1
E|----------------------------------------------------------------------------------------------
B|--------------------------------------------------------------------------------------------
G|-----7-7-7777-1010-9-7-3--------5---------7-7-7777-10109-7-3---555777875----------------------
D|-----x-x-xxxx--x-x-x-x-x---5-878-88787----x-x-xxxx-x-x-x-x-x -----------8755------------------
A|-----5-5-5555--8-8-7-5-1--------------8---8-8-5555-8-8-7-5-1----------------------------------
D|---------------------------------------------------------------------------------------------
Gtr 2
E|---------------------------------------------------------------------------------------------
B|---------------------------------------------------------------------------------------------
G|--------------------------------------------------------------------------------------------
D|---5--------------1--------------0------------5-------------1-------7778881087--------------
A|---5---strum -----1--strum-------0---strum----5---strum ---1-strum------------10865----------
D|---5----thru------1---thru-------0---thru-----5---thru-----1--thru--------------------------

Interlude
Gtr 1
E|-------------------------------------------------------------------------------------------
B|-------------------------------------------------------------------------------------------
G|-077------810875-----------------------77--------10875----775---5875------------------------
D|----8-----------878-------------/3---/5--8--------------87-7--------------------------------
A|--------------------------------------------------------------------------------------------
D|--------------------------------------------------------------------------------------------

Gtr 2
E|------------------------------------------------------------------------------------
B|-------------------------------------------------------------------------------------
G|-------------------------------------10107------------------------------------------
D|--5-----------3----5----------1-----8---------------------887---71087----------------
A|--5-----------3----5----------1--------------------------8---------------------------
D|--5-----------3----5----------1------------------------------------------------------

Bridge
Gtr 2
E|----------------------------------------------------------------------------------------------
B|----------------------------------------------------------------------------------------------
G|----------------------------------------------------------------------------------------------
D|---555---------555----------111---------------------------------------------------------------
A|---333---X8----555---X4-----111----X4----whole thing X2---------------------------------------
D|---------------555----------111--------------------------------------------------------------

Chorus same as last time

Solo
Gtr 1
E|-----------------------------------------------------------------------------------------------------
B|-----------------------------------------------------------------------------------------------------
G|---------------------------------------------------------------12—10 12 12--------------------------
D|----------8 10------8 10---------8--------8 10-------------8/10--12---------------------------------
A|-------10-----10 10----10 10 8 10-10--8 10----10 8-------------------------------------------------
D|---------------------------------------------------12 10 8-----------------------------------------

E|----------------------------------------------------------------------------------------------------
B|------10 11 12 10---10---10 11 12 10----------------------14151418141514181415141814151418----------
G|10 12-------------12-----------------12 10------10 12 12--------------------------------------------
D|-------------------------------------------12 10----------------------------------------------------
A|----------------------------------------------------------------------------------------------------
D|----------------------------------------------------------------------------------------------------

E|-----------------------18 15--15----------------10-----------------19b(21)-------------------------
B|------------------15 18-----18--------------------11-----------------------------------------------
G|------------15 17----------------15------------7----12 7------------------------------------------
D|------15 17-------------------------787-------8-----------8 10 8 10--------15 13 12---------------
A|---------------------------------------10 6 10---------------------------------------------------
D|--------------------------------------------------------------------------------------------------
Gtr 2
Same as Refrain

Outro
Both guitars same as Intro
Comments