Atreyu - Lip Gloss And Black Chords & Tabs

 

Lip Gloss And Black Chords & Tabs

Atreyu Chords & Tabs

Version: 5 Type: Tab 0 ratings
1 star 2 stars 3 stars 4 stars 5 stars
comments

Lip Gloss And Black Tab

   
                               LIP GLOSS AND BLACK
                              As recorded by Atreyu
            (From the 2002 Album SUICIDE NOTES AND BUTTERFLY KISSES)

Words and Music by Atreyu
Arranged by Atreyu
Transcribed by Gabriel Ortiz

   Intro
    Fast Rock Q=162
    N.C.
   4/4
    Gtr I
     T       T       T       T         T       T       T       T
||----------------------------------|-----------------------------------||
||o---------------------------------|----------------------------------o||
||--14-7h10-14-7h10-14-7h10-14-7h10-|-----------------------------------||
||----------------------------------|-14-7h10-14-7h10-14-7h10-14-7h10---||
||o---------------------------------|----------------------------------o||
||----------------------------------|-----------------------------------||


    N.C.
     T       T       T       T         T       T       T       T
||----------------------------------|----------------------------------||
||o---------------------------------|---------------------------------o||
||--14-7h10-14-7h10-14-7h10-14-7h10-|----------------------------------||
||----------------------------------|-14-7h10-14-7h10-14-7h10-14-7h10--||
||o---------------------------------|---------------------------------o||
||----------------------------------|----------------------------------||
|
|   Gtr II
|    T       T       T       T         T       T       T       T
||----------------------------------|----------------------------------||
||o---------------------------------|---------------------------------o||
||----------------------------------|----------------------------------||
||--12-5h=8-12-5h=8-12-5h=8-12-5h=8-|----------------------------------||
||o---------------------------------|-12-5h=8-12-5h=8-12-5h=8-12-5h=8-o||
||----------------------------------|----------------------------------||


   Verse
    D5                                Bb5
     T       T       T       T         T       T       T       T
||----------------------------------|---------------------------------|
||o---------------------------------|---------------------------------|
||--14-7h10-14-7h10-14-7h10-14-7h10-|---------------------------------|
||----------------------------------|-14-7h10-14-7h10-14-7h10-14-7h10-|
||o---------------------------------|---------------------------------|
||----------------------------------|---------------------------------|
|
||----------------------------------|---------------------------------|
||o---------------------------------|---------------------------------|
||----------------------------------|---------------------------------|
||---0-------0-------0-------0------|--8-------8-------8-------8------|
||o--0-------0-------0-------0------|--8-------8-------8-------8------|
||---0-------0-------0-------0------|--8-------8-------8-------8------|


  D5                      C5        Bb5                     F5
   T       T       T       T         T       T       T       T
                                                                     4x
|---------------------------------|----------------------------------||
|---------------------------------|---------------------------------o||
|-14-7h10-14-7h10-14-7h10-14-7h10-|----------------------------------||
|---------------------------------|-14-7h10-14-7h10-14-7h10-14-7h10--||
|---------------------------------|---------------------------------o||
|---------------------------------|----------------------------------||
|
|                                                                    4x
|---------------------------------|----------------------------------||
|---------------------------------|---------------------------------o||
|---------------------------------|----------------------------------||
|--0-------0-------0------10------|--8-------8-------8-------3-------||
|--0-------0-------0------10------|--8-------8-------8-------3------o||
|--0-------0-------0------10------|--8-------8-------8-------3-------||


   Chorus
    Slower Q=126
    $
    Bb5              C5
   6/8
||-----------------|----------------------|
||o----------------|----------------------|
||--7-7-7-7-7-9-10-|--9--9--9--9--9-10-12-|
||--x-x-x-x-x-x--x-|--x--x--x--x--x--x--x-|
||o-5-5-5-5-5-7--8-|--7--7--7--7--7--8-10-|
||-----------------|----------------------|
|
||-----------------|----------------------|
||o----------------|----------------------|
||-----------------|----------------------|
||--8-8-8-8-8-8--8-|-10-10-10-10-10-10-10-|
||o-8-8-8-8-8-8--8-|-10-10-10-10-10-10-10-|
||--8-8-8-8-8-8--8-|-10-10-10-10-10-10-10-|


  D5
|----------------------|---------------------------|
|----------------------|---------------------------|
|-10-10-10-10-10-10-10-|-14--14-14-14-12s14-14-14--|
|--x--x--x--x--x--x--x-|--x---x--x--x--x-----x--x--|
|--8--8--8--8--8--8--8-|-12--12-12-12-10s12-12-12--|
|----------------------|---------------------------|
|
|----------------------|---------------------------|
|----------------------|---------------------------|
|----------------------|---------------------------|
|--0-------------------|-(0)-----------------------|
|--0-------------------|-(0)-----------------------|
|--0-------------------|-(0)-----------------------|


                        1.
  Bb5                    C5
|----------------------|----------------------|
|----------------------|----------------------|
|-10-10-10-10-10-12-14-|-12-12-12-12-10--9--5-|
|--x--x--x--x--x--x--x-|--x--x--x--x--x--x--x-|
|--8--8--8--8--8-10-12-|-10-10-10-10--8--7--3-|
|----------------------|----------------------|
|
|----------------------|----------------------|
|----------------------|----------------------|
|----------------------|----------------------|
|--8--8--8--8--8--8--8-|-10-10-10-10-10-10-10-|
|--8--8--8--8--8--8--8-|-10-10-10-10-10-10-10-|
|--8--8--8--8--8--8--8-|-10-10-10-10-10-10-10-|


  D5
  PM----|           PM--------|           PM
|---------------------|----------------------||
|---------------------|---------------------o||
|---------10-(10)s7---|---------10-(10)s7----||
|----------x------x---|----------x------x----||
|-0-0-0-0--8--(8)s5-0-|-0-0-0-0--8--(8)s5-0-o||
|-0-0-0-0-----------0-|-0-0-0-0-----------0--||
|
| PM----|           PM--------|           PM
|---------------------|----------------------||
|---------------------|---------------------o||
|---------10-(10)s7---|---------10-(10)s7----||
|----------x------x---|----------x------x----||
|-0-0-0-0--8--(8)s5-0-|-0-0-0-0--8--(8)s5-0-o||
|-0-0-0-0-----------0-|-0-0-0-0-----------0--||


  2.                     Q=162
             To Coda
  C5                     A5                  C5  D5
                        4/4
|----------------------|----------|----------------||
|----------------------|----------|----------------||
|-12-12-12-12-10--9--7-|-6--------|-(6)-------6--7-||
|--x--x--x--x--x--x--x-|-x--------|-----------x--x-||
|-10-10-10-10--8--7--5-|-4--------|-(4)-------4--5-||
|----------------------|----------|----------------||
|
|----------------------|----------|----------------||
|----------------------|----------|----------------||
|----------------------|----------|----------------||
|-10-10-10-10-10-10-10-|-7--------|-(7)----7-10--0-||
|-10-10-10-10-10-10-10-|-7--------|-(7)----7-10--0-||
|-10-10-10-10-10-10-10-|-7--------|-(7)----7-10--0-||


 Verse
              Bb5             F5              C5            C#5     D5
  Gtr II                                      Gtrs I, II
|---------------|---------------|----------------|--------------------|
|---------------|---------------|----------------|--------------------|
|---------------|---------------|----------------|--------------------|
|-(0)--0---0--8-|-(8)--8---8--3-|-(3)--3---3--10-|-(10)-10--11--11--0-|
|-(0)--0---0--8-|-(8)--8---8--3-|-(3)--3---3--10-|-(10)-10--11--11--0-|
|-(0)--0---0--8-|-(8)--8---8--3-|-(3)--3---3--10-|-(10)-10--11--11--0-|


              Bb5             F5                         C/E   D5
|---------------|---------------|---------------|----------------|
|---------------|---------------|---------------|----------------|
|---------------|---------------|---------------|----------------|
|-(0)--0---0--8-|-(8)--8---8--3-|-(3)--3---3--3-|-(3)-3--2--2--0-|
|-(0)--0---0--8-|-(8)--8---8--3-|-(3)--3---3--3-|-(3)-3--3--3--0-|
|-(0)--0---0--8-|-(8)--8---8--3-|-(3)--3---3--3-|-(3)-3--2--2--0-|


              Bb5             F5              C5            C#5     D5
|---------------|---------------|----------------|--------------------|
|---------------|---------------|----------------|--------------------|
|---------------|---------------|----------------|--------------------|
|-(0)--0---0--8-|-(8)--8---8--3-|-(3)--3---3--10-|-(10)-10--11--11--0-|
|-(0)--0---0--8-|-(8)--8---8--3-|-(3)--3---3--10-|-(10)-10--11--11--0-|
|-(0)--0---0--8-|-(8)--8---8--3-|-(3)--3---3--10-|-(10)-10--11--11--0-|


              Bb5
|---------------|--------------||
|---------------|--------------||
|---------------|--------------||
|-(0)--0---0--8-|-(8)--8---8---||
|-(0)--0---0--8-|-(8)--8---8---||
|-(0)--0---0--8-|-(8)--8---8---||


                             1.,2.,3.,4.,5.,6.,7.        8.
    D5
    PM----------------------------------------------|
                                                       8x
||--------------------------|--------------------------||-----|
||o-------------------------|-------------------------o||-----|
||--------------------------|--------------------------||-----|
||--------------------------|--------------------------||-----|
||o-0-0-0-0-0-0-0-0-0-0-0-0-|-0-0-0-0-0-0-0-0-0-0-0-0-o||-----|
||--0-0-0-0-0-0-0-0-0-0-0-0-|-0-0-0-0-0-0-0-0-0-0-0-0--||-----|


 Bridge
  Slower Q=126
  D5
 6/8
  Gtr II
|-------------------|---------------------|
|-------------------|---------------------|
|-------------------|---------------------|
|-7-3--3-3-7-3--3-0-|---------------------|
|-------------------|--7--3--3-3-7-3--3-0-|
|-------------------|---------------------|
|
| Gtr I
|-------------------|---------------------|
|-------------------|---------------------|
|-------------------|---------------------|
|-0-----------------|-(0)-----------------|
|-0-----------------|-(0)-----------------|
|-0-----------------|-(0)-----------------|


                                   (F)(Em(C)
|---------------------|---------------------|
|---------------------|---------------------|
|---------------------|------------10--9-5--|
|--7--3--3-3-7-3--3-0-|-------------x--x-x--|
|---------------------|--7--3--3-0--8--7-3--|
|---------------------|---------------------|
|
|---------------------|---------------------|
|---------------------|---------------------|
|---------------------|------------14-12-9--|
|-(0)-----------------|-(0)---------x--x-x--|
|-(0)-----------------|-(0)--------12-10-7--|
|-(0)-----------------|-(0)-----------------|


   Interlude
    D5
||--------------------|-------------------|
||o-------------------|-------------------|
||--------------------|-------------------|
||--7-3--3-3-7-3--3-0-|-------------------|
||o-------------------|-7-3--3-3-7-3--3-0-|
||--------------------|-------------------|
|
||--------------------|-------------------|
||o-------------------|-------------------|
||--------------------|-------------------|
||--0-----------------|-8-----------------|
||o-0-----------------|-8-----------------|
||--0-----------------|-8-----------------|


                           D.S. al Coda
                               (F)(Em(C)
                                          4x
|-------------------|---------------------||
|-------------------|--------------------o||
|-------------------|----------10--9-5----||
|-7-3--3-3-7-3--3-0-|-----------x--x-x----||
|-------------------|-7-3--3-0--8--7-3---o||
|-------------------|---------------------||
|
|                                         4x
|-------------------|---------------------||
|-------------------|--------------------o||
|-------------------|----------14-12-9----||
|-0-----------------|-8---------x--x-x----||
|-0-----------------|-8--------12-10-7---o||
|-0-----------------|-8-------------------||


 Breakdown
  &
  D5
  Gtr II
|--------------|----------------|----------------|----------------|
|--------------|----------------|----------------|----------------|
|--------------|----------------|----------------|----------------|
|-0------------|-(0)------------|-(0)------------|-(0)------------|
|-0------------|-(0)------------|-(0)------------|-(0)------------|
|-0------------|-(0)------------|-(0)------------|-(0)------------|
|
| Gtr I
| PM------------------------------------------------------------|
|--------------|----------------|----------------|----------------|
|--------------|----------------|----------------|----------------|
|--------------|----------------|----------------|----------------|
|--------------|----------------|----------------|----------------|
|-0-0-0-0--0-0-|--0--0-0-0--0-0-|--0--0-0-0--0-0-|--0--0-0-0--0-0-|
|-0-0-0-0--0-0-|--0--0-0-0--0-0-|--0--0-0-0--0-0-|--0--0-0-0--0-0-|


  D5                                                     (F)(Em(C)
|----------------|--------------|--------------|-----------------||
|----------------|--------------|--------------|-----------------||
|----------------|--------------|--------------|---------14-12-9-||
|-0--------------|--------------|--------------|----------x--x-x-||
|-0--------------|--------------|--------------|---------12-10-7-||
|-0--------------|--------------|--------------|-----------------||
|
| PM---------------------------------------------------|
|----------------|--------------|--------------|-----------------||
|----------------|--------------|--------------|-----------------||
|----------------|--------------|--------------|---------10--9-5-||
|----------------|--------------|--------------|----------x--x-x-||
|-0-0--0-0---0-0-|-0-0-0-0--0-0-|-0-0-0-0--0-0-|-0-0-0-0--8--7-3-||
|-0-0--0-0---0-0-|-0-0-0-0--0-0-|-0-0-0-0--0-0-|-0-0-0-0---------||


   Breakdown Verse
    D5
    PM----|           PM--------|           PM-
||----------------------|---------------------|
||o---------------------|---------------------|
||----------10-(10)s7---|---------10-(10)s7---|
||-----------x------x---|----------x------x---|
||o-0-0-0-0--8--(8)s5-0-|-0-0-0-0--8--(8)s5-0-|
||--0-0-0-0-----------0-|-0-0-0-0-----------0-|
|
|   PM-----------------------------------------
||----------------------|---------------------|
||o---------------------|---------------------|
||----------------------|---------------------|
||--0-0-0-0--0------0-0-|-0-0-0-0--0------0-0-|
||o-0-0-0-0--0------0-0-|-0-0-0-0--0------0-0-|
||--0-0-0-0--0------0-0-|-0-0-0-0--0------0-0-|


                       1.,2.,3.
                                (F)(Em(C)
 -------|           PM--------|
                                         4x
|---------------------|------------------||
|---------------------|-----------------o||
|---------10-(10)s7---|---------14-12-9--||
|----------x------x---|----------x--x-x--||
|-0-0-0-0--8--(8)s5-0-|-0-0-0-0-12-10-7-o||
|-0-0-0-0-----------0-|-0-0-0-0----------||
|
|-----------------------------|
|                                        4x
|---------------------|------------------||
|---------------------|-----------------o||
|---------------------|---------10--9-5--||
|-0-0-0-0--0------0-0-|-0-0-0-0--x--x-x--||
|-0-0-0-0--0------0-0-|-0-0-0-0--8--7-3-o||
|-0-0-0-0--0------0-0-|-0-0-0-0----------||


               Interlude
  4.    H.=H    Slower Q=74
  D5            (Dm)
               4/4
  Gtrs I, II
                 >
|------------||---------------------------|------------------------|
|------------||---------------------------|------------------------|
|------------||---------------------------|------------------------|
|-0-0-0-0-x--||--0------------------------|------------------------|
|-0-0-0-0-x--||--0------------------------|------------------------|
|-0-0-0-0-x--||--0------------------------|------------------------|
|
| Gtr IV
|------------||---------------------------|------------------------|
|------------||-----------10-11--11-10----|-10-------------11------|
|------------||--------10----10--------12-|------12-10-12----------|
|------------||-----12--------8-----------|-15---------10--11--10--|
|------------||-12------------8-----------|-15---------10--11-(11)-|
|------------||-12------------8-----------|-15---------10--11-(11)-|

[ Tab from: http://www.guitartabs.cc/tabs/a/atreyu/lip_gloss_and_black_tab_ver_5.html ]
  (Dm)          (Bb)       (F)                    (C)           (C#)
  Gtr IV
|-----10-----------------|----------------------------------------------------|
|-10-----10-11--11-10----|-------------------------10------------10-----------|
|---------------------12-|----------------------------------------------------|
|-12---------8-----------|-15----------------------10------------11-----------|
|-12---------8-----------|-15----------------------10------------11-----------|
|-12---------8-----------|-15----------------------10------------11-----------|
|
| Gtr V
|                           <  <
|------------------------|-------------0--------------------------------------|
|------------------------|----------------------------------------------------|
|------------------------|-------10---------10------------10------------10----|
|------------------------|----12----12---12----12-(12)-12----12-(12)-12----12-|
|------------------------|----------------------------------------------------|
|------------------------|----------------------------------------------------|


  D5
|-------------------------------------------------------|
|-------------------------------------------------------|
|--14-----------------------(14)------------------------|
|--12-----------------------(12)------------------------|
|--12-----------------------(12)------------------------|
|--12-----------------------(12)------------------------|
|
|----------------0--------------------------------------|
|-------------------------------------------------------|
|---------10----------10------------10------------10----|
|-(12)-12----12----12----12-(12)-12----12-(12)-12----12-|
|-------------------------------------------------------|
|-------------------------------------------------------|
|
| Gtr VI
|----------------------------10--------10---------10----|
|--13--------13-------13--------------------------------|
|------14-------14-------14------14--------14--------14-|
|---------15-------15---------------15---------15-------|
|-------------------------------------------------------|
|-------------------------------------------------------|


  C6
|-------------------------------------------------------|
|-------------------------------------------------------|
|--14-----------------------(14)------------------------|
|--10-----------------------(10)------------------------|
|--10-----------------------(10)------------------------|
|--10-----------------------(10)------------------------|
|
|----------------0--------------------------------------|
|-------------------------------------------------------|
|---------10----------10------------10------------10----|
|-(12)-12----12----12----12-(12)-12----12-(12)-12----12-|
|-------------------------------------------------------|
|-------------------------------------------------------|
|
|----------------------------12--------12---------12----|
|--13--------13-------13--------------------------------|
|------14-------14-------14------14--------14--------14-|
|---------15-------15---------------15---------15-------|
|-------------------------------------------------------|
|-------------------------------------------------------|


  (Bb7)
|-------------------------------------------------------|
|-------------------------------------------------------|
|--14-----------------------(14)------------------------|
|---8------------------------(8)------------------------|
|---8------------------------(8)------------------------|
|---8------------------------(8)------------------------|
|
|----------------0--------------------------------------|
|-------------------------------------------------------|
|---------10----------10------------10------------10----|
|-(12)-12----12----12----12-(12)-12----12-(12)-12----12-|
|-------------------------------------------------------|
|-------------------------------------------------------|
|
|----------------------------10--------10---------10----|
|--13--------13-------13--------------------------------|
|------14-------14-------14------14--------14--------14-|
|---------15-------15---------------15---------15-------|
|-------------------------------------------------------|
|-------------------------------------------------------|


  C6                        C6            (C#)
|-------------------------------------------------------||
|-------------------------------------------------------||
|--14------------------------14------------14-----------||
|--10------------------------10------------11-----------||
|--10------------------------10------------11-----------||
|--10------------------------10------------11-----------||
|
|----------------0--------------------------------------||
|-------------------------------------------------------||
|---------10----------10------------10------------10----||
|-(12)-12----12----12----12-(12)-12----12-(12)-12----12-||
|-------------------------------------------------------||
|-------------------------------------------------------||
|
|----------------------------12--------12---------12----||
|--13--------13-------13--------------------------------||
|------14-------14-------14------14--------14--------14-||
|---------15-------15---------------15---------15-------||
|-------------------------------------------------------||
|-------------------------------------------------------||


 Guitar Solo
  Slightly Faster Q=76
  D5                                Bb5
  Gtr III
                                     ~~
|--------------------------------------------------------------|
|-----------------10----13----11----10-------10h11---10--------|
|---------------x-----------------------------------------10---|
|-------------x------------------------------------------------|
|--------------------------------------------------------------|
|--------------------------------------------------------------|
|
| Gtrs I, II
|--------------------------------------------------------------|
|--------------------------------------------------------------|
|--------------------------------------------------------------|
|-12-12-12-12-----12-12----12----12--8-8-8-8-----8-8----8----8-|
|-12-12-12-12-----12-12----12----12--8-8-8-8-----8-8----8----8-|
|-12-12-12-12-----12-12----12----12--8-8-8-8-----8-8----8----8-|
|
| Gtr IV
|--------------------------------------------------------------|
|--------------------------------------------------------------|
|-14--------------------------------14-------------------------|
|-12---------------------------------8-------------------------|
|-12---------------------------------8-------------------------|
|-12---------------------------------8-------------------------|


  C5                                  C#5
   ~~
|--------------------------------------------------|
|--------------------------------------------------|
|--------------------------------------------------|
|-10-----------------------------------------------|
|--------------------------------------------------|
|-------------------------10-10-10-10-10h11-11-11--|
|
|--------------------------------------------------|
|--------------------------------------------------|
|--------------------------------------------------|
|-10-10-10-10-10-10-10-10-10-10-10-10-11-11-11-11--|
|-10-10-10-10-10-10-10-10-10-10-10-10-11-11-11-11--|
|-10-10-10-10-10-10-10-10-10-10-10-10-11-11-11-11--|
|
|--------------------------------------------------|
|--------------------------------------------------|
|-14----------------------14----------14-----------|
|-10----------------------10----------11-----------|
|-10----------------------10----------11-----------|
|-10----------------------10----------11-----------|


  D5                      Bb5
|-----------------------------------------------|
|-------------13----------11---------10---------|
|-12-10--9-10----10--9-10----10-9-10----10-9-10-|
|-----------------------------------------------|
|-----------------------------------------------|
|-----------------------------------------------|
|
|-----------------------------------------------|
|-----------------------------------------------|
|-----------------------------------------------|
|-12-12-12-12-12-12-12-12--8--8-8--8--8--8-8--8-|
|-12-12-12-12-12-12-12-12--8--8-8--8--8--8-8--8-|
|-12-12-12-12-12-12-12-12--8--8-8--8--8--8-8--8-|
|
|-----------------------------------------------|
|-----------------------------------------------|
|-14----------------------14--------------------|
|-12-----------------------8--------------------|
|-12-----------------------8--------------------|
|-12-----------------------8--------------------|


  C5                                   C#5
|---------------------------------------------------|
|--------------13-------11-------10-----------------|
|-/12-10--9-10----10--9----10--9----10--9-10--9-10/-|
|---------------------------------------------------|
|---------------------------------------------------|
|---------------------------------------------------|
|
|---------------------------------------------------|
|---------------------------------------------------|
|---------------------------------------------------|
|--10-10-10-10-10-10-10-10-10-10-10-10-11-11-11-11--|
|--10-10-10-10-10-10-10-10-10-10-10-10-11-11-11-11--|
|--10-10-10-10-10-10-10-10-10-10-10-10-11-11-11-11--|
|
|---------------------------------------------------|
|---------------------------------------------------|
|--14----------------------14----------14-----------|
|--10----------------------10----------11-----------|
|--10----------------------10----------11-----------|
|--10----------------------10----------11-----------|


  D5                      Bb5
|-------------20----------18----------17----------|
|-20-18-17-18----18-17-18----18-17-18----18-17-18-|
|-------------------------------------------------|
|-------------------------------------------------|
|-------------------------------------------------|
|-------------------------------------------------|
|
|-------------------------------------------------|
|-------------------------------------------------|
|-------------------------------------------------|
|-12-12-12-12-12-12-12-12--8--8--8--8--8--8--8--8-|
|-12-12-12-12-12-12-12-12--8--8--8--8--8--8--8--8-|
|-12-12-12-12-12-12-12-12--8--8--8--8--8--8--8--8-|
|
|-------------------------------------------------|
|-------------------------------------------------|
|-14----------------------14----------------------|
|-12-----------------------8----------------------|
|-12-----------------------8----------------------|
|-12-----------------------8----------------------|


  C5                                   C#5
|--------------20-------18-------17----------------|
|-/20s18-17-18----18-17----18-17----18-17-18-17-18-|
|--------------------------------------------------|
|--------------------------------------------------|
|--------------------------------------------------|
|--------------------------------------------------|
|
|--------------------------------------------------|
|--------------------------------------------------|
|--------------------------------------------------|
|--10-10-10-10-10-10-10-10-10-10-10-10-11-11-11-11-|
|--10-10-10-10-10-10-10-10-10-10-10-10-11-11-11-11-|
|--10-10-10-10-10-10-10-10-10-10-10-10-11-11-11-11-|
|
|--------------------------------------------------|
|--------------------------------------------------|
|--14----------------------14----------14----------|
|--10----------------------10----------11----------|
|--10----------------------10----------11----------|
|--10----------------------10----------11----------|


  D5                            Bb5
|-------------------------------18----------17----------|
|-20-18-17h18p17-------18-17-18----18-17-18----18-17-18-|
|----------------19p17----------------------------------|
|-------------------------------------------------------|
|-------------------------------------------------------|
|-------------------------------------------------------|
|
|-------------------------------------------------------|
|-------------------------------------------------------|
|-------------------------------------------------------|
|-12-12-12----12----12-12-12-12--8--8--8--8--8--8--8--8-|
|-12-12-12----12----12-12-12-12--8--8--8--8--8--8--8--8-|
|-12-12-12----12----12-12-12-12--8--8--8--8--8--8--8--8-|
|
|-------------------------------------------------------|
|-------------------------------------------------------|
|-14----------------------------14----------------------|
|-12-----------------------------8----------------------|
|-12-----------------------------8----------------------|
|-12-----------------------------8----------------------|


  C5                                   C#5
|--------------20-------18-------17--------------------||
|-/20-18-17-18----18-17----18-17----18-17-(17)-(17)-18-||
|------------------------------------------------------||
|------------------------------------------------------||
|------------------------------------------------------||
|------------------------------------------------------||
|
|------------------------------------------------------||
|------------------------------------------------------||
|------------------------------------------------------||
|--10-10-10-10-10-10-10-10-10-10-10-10-11--11---11--11-||
|--10-10-10-10-10-10-10-10-10-10-10-10-11--11---11--11-||
|--10-10-10-10-10-10-10-10-10-10-10-10-11--11---11--11-||
|
|------------------------------------------------------||
|------------------------------------------------------||
|--14----------------------14----------14--------------||
|--10----------------------10----------11--------------||
|--10----------------------10----------11--------------||
|--10----------------------10----------11--------------||


 Outro
  Slightly Slower Q=74
  (Dm)         (Bb)             (F)          (C) (C#)
  Gtr IV
|-----------------------------|--------------------------|
|-----------10--11---11-10----|--10--------------11------|
|--------10-----10---------12-|--------12-10-12----------|
|-----12---------8------------|--15----------10--11--10--|
|-12-------------8------------|--15----------10--11-(11)-|
|-12-------------8------------|--15----------10--11-(11)-|
|
| Gtr III
|                >
|  ~~~~~~~~~~~~~~~~~
|-----------------------------|--------------------------|
|-17-----------(17)-----------|--------------------------|
|-----------------------------|--------------------------|
|-----------------------------|--------------------------|
|-----------------------------|--------------------------|
|-----------------------------|--------------------------|
|
| Gtrs I, II
|                                 >
|-----------------------------|--------------------------|
|-----------------------------|--------------------------|
|-----------------------------|--------------------------|
|-12--------------------------|-(12)---------------------|
|-12--------------------------|-(12)---------------------|
|-12--------------------------|-(12)---------------------|


  (Dm)      (Bb)           (F)   (C) (C#)
|-----10-----------------|---------------|
|-10-----10-11--11-10----|-10----10--10--|
|---------------------12-|---------------|
|-12---------8-----------|-15----10--11--|
|-12---------8-----------|-15----10--11--|
|-12---------8-----------|-15----10--11--|


  (Dm)            (Bb)           (F)        (C) (C#)
|------------------------------|------------------------|
|--------------10-11--11-10----|-10-------------11------|
|-----------10----10--------12-|------12-10-12----------|
|-12-----12--------8-----------|-15---------10--11--10--|
|-12--12-----------8-----------|-15---------10--11-(11)-|
|-12---------------8-----------|-15---------10--11-(11)-|


  (Dm)         (Bb)           (F)        (C) (C#)
|--------10-----------------|------------------------|
|-----10----10-11--11-10----|-10-------------11------|
|--------------10--------12-|------12-10-12----------|
|---------------8-----------|-15---------10--11--10--|
|-12------------8-----------|-15---------10--11-(11)-|
|-12------------8-----------|-15---------10--11-(11)-|


  (Dm)            (Bb)           (F)               (C)  (C#)
|------------------------------|-------------------------|
|--------------10-11--11-10----|-10-------------11-------|
|-----------10----10--------12-|------12-10-12-----------|
|-12-----12--------8-----------|-15---------10--11--10---|
|-12--12-----------8-----------|-15---------10--11-(11)--|
|-12---------------8-----------|-15---------10--11-(11)--|


                                        H.=H
  (Dm)        (Bb)           (F)        (C)
|-------10-----------------|------------------*|
|-10-------10-11--11-10----|-10---------------*|
|-----------------------12-|------12-10-12----*|
|-12-12--------8-----------|-15---------10----*|
|-12-----------8-----------|-15---------10----*|
|-12-----------8-----------|-15---------10----*|
Comments