Atreyu - Lip Gloss And Black Chords & Tabs

 

Lip Gloss And Black Chords & Tabs

Atreyu Chords & Tabs

Version: 4 Type: Tab 0 ratings
1 star 2 stars 3 stars 4 stars 5 stars
comments

Lip Gloss And Black Tab

Atreyu
lip gloss and black
- i was watching the live video and this is exactly how its played...download it

Intro:

lead guitar-play this trough the first verse
D----------------------------------------------------------------------------|
A----------------------------------------------------------------------------|
F-14t-h7h10-14-h7h10-14t-h7h10-14-h7h10--------------------------------------|
C--------------------------------------14t-h7h10-14-h7h10-14t-h7h10-14-h7h10-|
G----------------------------------------------------------------------------|
C----------------------------------------------------------------------------|

Rythem-comes in after lead plays twice
D----------------------------------------------------------------------------|
A----------------------------------------------------------------------------|
F----------------------------------------------------------------------------|
C-12t-h5h8-12t-h5h8-12t-h5h8-12t-h5h8----------------------------------------|
G-------------------------------------12t-h5h8-12t-h5h8-12t-h5h8-12t-h5h8----|
C----------------------------------------------------------------------------|


Verse:

Lead-still playing intro

Rythem

D---------------------------------------------------------------------------|
A---------------------------------------------------------------------------|
F----------3~--------------5~------(2)--------------------------------------|
C--0~------3~------0~------5~------(2)--------------------------------------|
G--0~------1~------0~------3~------(0)--------------------------------------|
C--0~--------------0~-------------------------------------------------------|


Chorus:

Lead

D---------------------------------------------------------------------------|
A---------------------------------------------------------------------------|
F-7--7-9-10-9--9-10-12-1010/1414--12/14-12-1010--10-12-14-1212--12-10-9-----|
C---------------------------------------------------------------------------|
G-5--5-7-8--7--7-8--10-8-8-/1212--10/12-10-8-8---8--10-12-1010--10-8--7-----|
C---------------------------------------------------------------------------|

Rythem

D---------------------------------------------------------------------------|
A---------------------------------------------------------------------------|
F----3~------5~--------------3~------5~-------------------------------------|
C----3~------5~------0~------3~------5~-------------------------------------|
G----1~------3~------0~------1~------3~-------------------------------------|
C--------------------0~-----------------------------------------------------|

lead and rythem (live)

D---------------------------------------------------------------------------|
A---------------------------------------------------------------------------|
F--------------5*-----------------------------------------------------------|
C----0-0-0--0-----0-0--0-0-0--0--5*-----------------------------------------|
G----0-0-0--0-----0-0--0-0-0--0---------------------------------------------|
C----0-0-0--0-----0-0--0-0-0--0---------------------------------------------|
     ........     .............
for regular song substitute the 5*'s with

D------------|
A------------|
F---10-------|
C------------|
G----8-------|
C------------|

Verse 2:

Lead-wait for rythem to get to this part and then you start playing

D-----------------------------|
A-----------------------------|
F--------5--5--6--6-----------|
C--------5--5--6--6--0--------|
G--------3--3--4--4--0--------|
C--------------------0--------|

D----------------------------------------------------------------------------|
A----------------------------------------------------------------------------|
F---------3--3-3--------------------------3--3-3--------5-5-5--6-6-6---------|
C--0--0-0-3--3-3-3--3-3--3-3-2--2--0--0-0-3--3-3-3--3-3-5-5-5--6-6-6--0--0-0-|
G--0--0-0-1--1-1-3--3-3--3-3-2--2--0--0-0-1--1-1-3--3-3-3-3-3--4-4-4--0--0-0-|
C--0--0-0--------3--3-3--3-3-2--2--0--0-0--------3--3-3---------------0--0-0-|

D------------------|
A------------------|
F-3--3-3-----------|
C-3--3-3-----000---|
G-1--1-1-----000---| (triple pick till it ends)
C------------000---|

Rythem-right after chours

D-------------------------------------|
A-------------------------------------|
F---------3--3-3--------5-5-5--6-6-6--|
C--0--0-0-3--3-3-3--3-3-5-5-5--6-6-6--|
G--0--0-0-1--1-1-3--3-3-3-3-3--4-4-4--|
C--0--0-0--------3--3-3---------------|

D----------------------------------------------------------------------------|
A----------------------------------------------------------------------------|
F---------3--3-3--------------------------3--3-3--------5-5-5--6-6-6---------|
C--0--0-0-3--3-3-3--3-3--3-3-2--2--0--0-0-3--3-3-3--3-3-5-5-5--6-6-6--0--0-0-|
G--0--0-0-1--1-1-3--3-3--3-3-2--2--0--0-0-1--1-1-3--3-3-3-3-3--4-4-4--0--0-0-|
C--0--0-0--------3--3-3--3-3-2--2--0--0-0--------3--3-3---------------0--0-0-|

D------------------|
A------------------|
F-3--3-3-----------|
C-3--3-3-----000---|
G-1--1-1-----000---| (triple pick till it ends)
C------------000---|


verse 2

Lead-after the open C rings let rythem play that part twice
[ Tab from: http://www.guitartabs.cc/tabs/a/atreyu/lip_gloss_and_black_tab_ver_4.html ]
D---------------------------------------------------------|
A---------------------------------------------------------|
F-----------12-10--9-----------------------12-10--9-------|
C--0~------------------0~---8~---0~---8~------------------| 4X
G--0~-------10--8--7---0~---8~---0~---8~---10--8--7-------|
C--0~------------------0~---8~---0~---8~------------------|

Rythem

A---------------------------------------------------------|
D---------------------------------------------------------|
F-2---------2--------------------------------2------------|
C---3--3--3---3--3-----2----------2-----------------------|6X
G--------------------3-----3--3--3---3--3--0--------------|
C---------------------------------------------------------|

Repeat Chorus


Bridge

lead-right after chorus

A----------------|
D----------------|
F----------------|
C-0--0--0-0-0----| Play 8x
G-0--0--0-0-0----|
C-0--0--0-0-0----|
  ...........

rythem just plays this once

A------|
D------|
F------|
C--0---|
G--0---|
C--0---|

lead and rythem

A------------|------------------------------------|
D------------|------------------------------------|
F---12-10--9-|----------10--------------12-10--9--|
C------------|-0-0-0--0-----3X-0-0-0--0-----------|overall play 4X then
G---10--8--7-|-0-0-0--0--8-----0-0-0--0-10--8--7--|
C------------|-0-0-0--0--------0-0-0--0-----------|
               ........        ........
A---------------------------------|
D---------------------------------|
F---------------------------------|
C---0-0-0-0-------0~--------------|
G---0-0-0-0-------0~--------------|
C---0-0-0-0-------0~--------------|
    . . . .

piano...

breakdown

rythem

D-------------------------------------------------|
A-------10----------10------------11--------13----|
F----10----10-12-10----10------10-------10--------| Play 4x
C-12------------------------12-------12-----------|
G-------------------------------------------------|
C-------------------------------------------------|

D-------------------------------------------------|
A-------10----------10----------10----------------|
F----10----10-12-12----10-12-12----10-12----------|
C-12----------------------------------------------|
G-------------------------------------------------|
C-------------------------------------------------|

lead-begins after rythem

D---------------------------------------------------------------|
A---13-------13-------13----15-------15-------15----------------|
F------14-------14-------14----14-------14-------14-------------|
C---------15-------15-------------15-------15-------------------|
G---------------------------------------------------------------|
C---------------------------------------------------------------|

D---------------------------12-------12-------12-------12-------|
A---13-------13-------13----------------------------------------|
F------14-------14-------14----14-------14-------14-------14----|
C---------15-------15-------------15-------15-------15-------15-|
G---------------------------------------------------------------|
C---------------------------------------------------------------|


pick slide\\\\\\


lead

D-------------------------------------------------------------------|
A------13--11-------------------------------------------------------|
F---14--------14---14h15p14-----------------------------------------|
C-----------------------------15------------------------------------|
G--------------------------------15v--------------------------------|
C---------------------------------------10-10-10-10-11-11-11-11-----|

D----------8-------6-------5---------------8----6-------------------|
A--8-6-5-6---6-5-6---6-5-6---6-5-6-8-6-5-6---6-5---6-5-6-5/22-------|
F-------------------------------------------------------------------|
C-------------------------------------------------------------------| cont.
G-------------------------------------------------------------------|
C-------------------------------------------------------------------|

D-------------20--------18----------17---------------------20------18-|
A-20-18-17-18---18-17-18---18-17-18---18-17-18-20^-18-17-18---18-17---|
F---------------------------------------------------------------------|
C---------------------------------------------------------------------| cont.
G---------------------------------------------------------------------|
C---------------------------------------------------------------------|

D------17---------------------------------------18---------17---------|
A-18-17--18-17-18-17-18-20-18-17h18p15--18-17-18---18-17-18--18-17-18-|
F-------------------------------------17------------------------------|
C---------------------------------------------------------------------|
G---------------------------------------------------------------------|
C---------------------------------------------------------------------|

D------------20-----18-----17----------------------------------------|
A-20-18-17-18--18-17--18-17--18-17--17-18-17~------------------------|
F--------------------------------------------------------------------|
C--------------------------------------------------------------------|
G--------------------------------------------------------------------|
C--------------------------------------------------------------------|

rythem during solo

D---------------------------------------------------------------------|
A---------------------------------------------------------------------|
F------------------3-3-3-3-3-3-3-3-5-5-5-5-5-5-5-5-5-5-5-5-5-5-5-5----|
C--0-0-0-0-0-0-0-0-3-3-3-3-3-3-3-3-5-5-5-5-5-5-5-5-5-5-5-5-5-5-5-5----|
G--0-0-0-0-0-0-0-0-1-1-1-1-1-1-1-1-3-3-3-3-3-3-3-3-3-3-3-3-3-3-3-3----|
C--0-0-0-0-0-0-0-0----------------------------------------------------|


end..
Comments