Atreyu - Lip Gloss And Black Chords & Tabs

 

Lip Gloss And Black Chords & Tabs

Atreyu Chords & Tabs

Version: 1 Type: Bass Tab 0 ratings
1 star 2 stars 3 stars 4 stars 5 stars
comments

Lip Gloss And Black Bass Tab

Band: Atreyu
Title: Lip Gloss And Black
Tabber: Sqweeky
Submitted By: Stand Alone (projectwyze13@hotmail.com)


Verse 1... Wait until tapping is done on guitar 2.
F-----------------------
C-----------------------  Play 4x
G-----------------------
C-0---8---0--10-8--(7)--

Chorus
F-------------------------------------------------------------------------
C-------------------------------------------------------------------------
G-------------------------------------------------------------------------
C--8-8-8-8-8-8-10-10-10-10-10-10-0-----8-8-8-8-8-8-10-10-10-10-10-10-------

F------------------------------
C------------------------------
G-..-.--.8\.-.-..-.--.8\.-.----
C-00-0--0--0-0-00-0--0--0-0----

F-------------------------------------------------------------------------
C-------------------------------------------------------------------------
G-------------------------------------------------------------------------
C--8-8-8-8-8-8-10-10-10-10-10-10-0-----8-8-8-8-8-8-10-10-10-10-10-10--7~--

F-----------
C-----------
G-----------
C--10---0---

Verse 2... Wait a while after chorus.
F------------------------
C------------------------
G------------------------
C--10--10--11--11---0----
[ Tab from: http://www.guitartabs.cc/tabs/a/atreyu/lip_gloss_and_black_btab.html ]
F---------------------------------------------------
C---------------------------------------------------
G-----.----------.----------.-----------------------
C--0--0----0--8--8----8--3--3----3--10--10--11--11--

F-----------------------------------------------
C-----------------------------------------------
G-----.----------.----------.-------------------
C--0--0----0--8--8----8--3--3----3--3--3--2--2--

F------------------------
C------------------------
G-----.----------.-------
C--0--0----0--8--8----8--

F-------                -------
C-------                -------
G-...--- Play 60x, then -------
C-000---                --0----
  :::

F--------------
C--------------
G--------------  Play 8x
C--0~-----8~---

Repeat Chorus

F-------
C-------
G--.----
C--0----

F--------------
C--------------
G-..-.--.8\.-.- Play 15x
C-00-0--0--0-0-

F-----------------
C-----------------
G-----------------
C-0--0--0-0----0~-
  :  :  : :

Piano solo
F----------------------------------
C----------------------------------
G-/5~-----\3~----\1~------/3~------
C----------------------------------

Guitar Solo
Play each note 8 times
F-----------------
C-----------------
G-----------------  Play 4x
C-0--8--10--10----

End with:
F-----------------
C-----------------
G-----------------
C--0~-------------
Comments