Atreyu - Exs And Ohs Chords & Tabs

 

Exs And Ohs Chords & Tabs

Atreyu Chords & Tabs

Version: 1 Type: Tab

Exs And Ohs Tab

-----------------------------------------------------------------
Atreyu - Ex's And Oh's Intro
-----------------------------------------------------------------

This is my first tab, probably wrong somehow, but it gets the point across.



Tuning: CGCFAD
[ Tab from: http://www.guitartabs.cc/tabs/a/atreyu/exs_and_ohs_tab.html ]
D|-0--2--3-3~----0--2--3--2--2h3p2-0---0--2--5--3~----2--3--5--7~------|
A|-----------------------------------3---------------------------------|
F|---------------------------------------------------------------------|
C|---------------------------------------------------------------------|
G|---------------------------------------------------------------------|
C|---------------------------------------------------------------------|

D|-0--2--3-3~----0--2--3--2--2h3p2-0---0--2--5-5-7-3~----2--3--5--10~--|
A|-----------------------------------3---------------------------------|
F|---------------------------------------------------------------------|
C|---------------------------------------------------------------------|
G|---------------------------------------------------------------------|
C|---------------------------------------------------------------------|



That's it, took me like 5 minutes to figure out.