Atreyu - Dilated Chords & Tabs

 

Dilated Chords & Tabs

Atreyu Chords & Tabs

Version: 1 Type: Tab 0 ratings
1 star 2 stars 3 stars 4 stars 5 stars
comments

Dilated Tab

Atreyu - Dilated
Submitted by: Thienskater

Enjoi!

DROP C Tuning  (dafcgc)

X = Mute
P = Pull Off
H = Hammer On
* = Ring out
pm = Palm Mute
/ = Slide

Intro:
d|-------------------------------------------------------|
a|-------------------------------------------------------|
f|--------10/9---------10/9---------10/9-----------------|
C|-0-000-------7--000-------8--000-------5--000--5p3-0---|
G|-0-000--8/7--7--000--8/7--8--000--8/7--5--000--5p3-0---|
C|-0-000-------7--000-------8--000-------5--000--5p3-0---|
pm   ...          ...          ...          ...

Verse:
d|----------------|
a|----------------| listen to the song
f|----------------| to figure out the rhythm
C|--0-7-8-5--530--| those are the right chords to
G|--0-7-8-5--530--| use though.
C|--0-7-8-5--530--|

here's the little lead part after
playing the verse part twice

d|----------------------------------------| 
a|----------------------------------------| 
f|--7--10p9-7-9--10p9-7-10--10p9-7--------| 
C|---------------------------------5-5h6--| 
G|----------------------------------------| 
C|----------------------------------------|
[ Tab from: http://www.guitartabs.cc/tabs/a/atreyu/dilated_tab.html ]
d|----------------------------------------------|
a|----------------------------------------------|
f|----------------------------------------------|
C|-0*-------------------------------------------|
G|-0*---8-7-8-10-8-7h8-3-5--8-7-8-12-10-7h8-3-5-|
C|-0*-------------------------------------------|

d|------------------------------------------------|
a|------------------------------------------------|
f|-10-9-10-12-10-9h10-5-7--10-9-10-15-14-9h10-5-7-|
C|------------------------------------------------|
G|------------------------------------------------|
C|------------------------------------------------|

d|---------------------------------|
a|---------------------------------|
f|-10-9-10-12-10-9h10--------------|
C|--------------------5555-X-8888--|
G|--------------------5555-X-8888--|
C|--------------------5555-X-8888--|

d|------------------------------------------------|
a|------------------------------------------------|
f|-10-9-10-12-10-9h10-5-7--10-9-10-15-14-9h10-5-7-|
C|------------------------------------------------|
G|------------------------------------------------|
C|------------------------------------------------|

d|---------------------------------------------|
a|---------------------------------------------|
f|-10-9-10-12-10-9h10--------------------------|
C|--------------------5555-X-8888---X-5*--X-8*-|
G|--------------------5555-X-8888---X-5*--X-8*-|
C|--------------------5555-X-8888---X-5*--X-8*-|
Comments