Atreyu - Deanne The Arsonist Chords & Tabs

 

Deanne The Arsonist Chords & Tabs

Atreyu Chords & Tabs

Version: 1 Type: Tab 0 ratings
1 star 2 stars 3 stars 4 stars 5 stars
comments

Deanne The Arsonist Tab

deanne the arsonist
atreyu

Intro
Gtr. 1 (With sweeping flange)
|-----------------------------------|
|-----------------------------------|
|-----------------------------------|
|--0-0-0-0-12-0-0-12-0-0-12-0-0-0---|
|-----------------------------------|
|-----------------------------------|
Repeat X12 (Fast Picking)

Gtr. 2
|-----------------------------------|
|-----------------------------------|
|-----------------------------------|
|--5~----1~----8~----3~-------------|
|--5~----1~----8~----3~-------------|
|--5~----1~----8~----3~-------------|
Come in after Gtr. 1 plays above section X4

Pre Verse 
Gtr. 1 (X2)
|--------------------------------------------|
|--------------------------------------------|
|--12-10-8~--7-5-7-8-7-0~--0-2-3-5-3-2?--0~--|
|--------------------------------------3v----|
|--------------------------------------------|
|--------------------------------------------|

|--------------------------------------------|
|--------------------------------------------|
|--12-12-10-8~--10-12-10v~--15-14-12-10-12v--|
|--------------------------------------------|
|--------------------------------------------|
|--------------------------------------------|

Gtr. 2 (X4)
|---------------------------------------------------------------------|
|---------------------------------------------------------------------|
|---------------------------------------------------------------------|
|--5-5-5-5-5-5-5-5--1-1-1-1-1-1-1-1--8-8-8-8-8-8-8-8--3-3-3-3-3-3-3-3-|
|--5-5-5-5-5-5-5-5--1-1-1-1-1-1-1-1--8-8-8-8-8-8-8-8--3-3-3-3-3-3-3-3-|
|--5-5-5-5-5-5-5-5--1-1-1-1-1-1-1-1--8-8-8-8-8-8-8-8--3-3-3-3-3-3-3-3-|

Verse
Both Guitars (X1)
|---------------------------------------------------------------|
|---------------------------------------------------------------|
|---------------------------------------------------------------|
|--5-5--5-5-5--5-5-5--5-5-5--5-1-1?-1-1-1--1-1-1--1-1-1?-1-3-3--|
|--5-5--5-5-5--5-5-5--5-5-5--5-1-1?-1-1-1--1-1-1--1-1-1?-1-3-3--|
|--5-5--5-5-5--5-5-5--5-5-5--5-1-1?-1-1-1--1-1-1--1-1-1?-1-3-3--|

|---------------------------------------------------------------|
|---------------------------------------------------------------|
|---------------------------------------------------------------|
|--3-3-3--3-3-3--3-3-3--3--5-5-5-5-5--6-6-6-6-6-----------------|
|--3-3-3--3-3-3--3-3-3--3--5-5-5-5-5--6-6-6-6-6-----------------|
|--3-3-3--3-3-3--3-3-3--3--5-5-5-5-5--6-6-6-6-6-----------------|

|---------------------------------------------------------------|
|---------------------------------------------------------------|
|---------------------------------------------------------------|
|--5-5--5-5-5--5-5-5--5-5-5--5-1-1--1-1-1--1-1-1--1-1-1?-1-3-3--|
|--5-5--5-5-5--5-5-5--5-5-5--5-1-1--1-1-1--1-1-1--1-1-1?-1-3-3--|
|--5-5--5-5-5--5-5-5--5-5-5--5-1-1--1-1-1--1-1-1--1-1-1?-1-3-3--|

|---------------------------------------------------------------|
|---------------------------------------------------------------|
|---------------------------------------------------------------|
|--3-3-3--3-3-3--3-3-3--3?-0-0-0-0-0--1-1-1-1-1-----------------|
|--3-3-3--3-3-3--3-3-3--3--0-0-0-0-0--1-1-1-1-1-----------------|
|--3-3-3--3-3-3--3-3-3--3--0-0-0-0-0--1-1-1-1-1-----------------|


+Both guitars repeat Intro (X1).


+Both guitars repeat Verse (X1).

[ Tab from: http://www.guitartabs.cc/tabs/a/atreyu/deanne_the_arsonist_tab.html ]
Breakdown
Both Guitars (X1)
|--------------------------------------------|
|--------------------------------------------|
|--------------------------------------------|
|--0-0----10-12------------------------------|
|--0-0--8-------8v---------------------------|
|--0-0---------------------------------------|
   . .

Gtr. 1 (X2)
|--------------------------------------------|
|--------------------------------------------|
|--------------------------------------------|
|--0-7-0-10-8-7----0-7-0-8-7-----------------|
|----------------------------8v--------------|
|--------------------------------------------|



Gtr. 2 (X2)
|--------------------------------------------|
|--------------------------------------------|
|--------------------------------------------|
|--0-0--0-0-0-0----0-0--0--0-0--0-0-0-0------|
|--0-0--0-0-0-0----0-0--0--0?0--0-0-0-0------|
|--0-0--0-0-0-0----0-0--0--0-0--0-0-0-0------|
   . .  . . . .    . .  .  . .  . . . .

|--------------------------------------------|
|--------------------------------------------|
|---------------------------------------5*v--|
|--0-0--0-0-0-0----0-0--0--0-0--0-0-0-0------|
|--0-0--0-0-0-0----0-0--0--0?0--0-0-0-0------|
|--0-0--0-0-0-0----0-0--0--0-0--0-0-0-0------|
   . .  . . . .    . .  .  . .  . . . .

Pre Bridge
Both Guitars (X2)
|--------------------------------------------------------------------|
|--------------------------------------------------------------------|
|--------------------------------------------------------------------|
|--6-6-6-6-6-6-6-6-6-6-6-6-6-6-6-6--1-1-1-1-1-1-1-1-1-1-1-1-1-1-1-1--|
|--6-6-6-6-6-6-6-6-6-6-6-6-6-6-6-6--1-1-1-1-1-1-1-1-1-1-1-1-1-1-1-1--|
|--6-6-6-6-6-6-6-6-6-6-6-6-6-6-6-6--1-1-1-1-1-1-1-1-1-1-1-1-1-1-1-1--|

|--------------------------------------------------------------------|
|--------------------------------------------------------------------|
|--------------------------------------------------------------------|
|--4-4-4-4-4-4-4-4-4-4-4-4-4-4-4-4?0~----0m--------------------------|
|--4-4-4-4-4-4-4-4-4-4-4-4-4-4-4-4?0~----0m--------------------------|
|--4-4-4-4-4-4-4-4-4-4-4-4-4-4-4-4?0~----0m--------------------------|

Bridge
Gtr. 1 (X4)(Tapping solo)
|--------------------------------------------------------------------|
|--------------------------------------------------------------------|
|--h9p5h7-h9p5h7-h9p5h7-h9p5h7-h10p5h7-h10p5h7-h10p5h7-h10p5h7-------|
|--------------------------------------------------------------------|
|--------------------------------------------------------------------|
|--------------------------------------------------------------------|

|--------------------------------------------------------------------|
|--------------------------------------------------------------------|
|--h12p5h7-h12p5h7-h12p5h7-h12p5h7-h12p5h7-h12p5h7-h12p5h7-h12p5h7---|
|--------------------------------------------------------------------|
|--------------------------------------------------------------------|
|--------------------------------------------------------------------|

Gtr. 2 (X2) Comes in after first time through above section.
|----------------------------------------------------------|
|----------------------------------------------------------|
|-3~----5~----8~-------------------------------------------|
|-3~----5~----8~-------------------------------------------|
|-1~----3~----6~-------------------------------------------|
|----------------------------------------------------------|

+Both guitars play Breakdown again. 

Gtr. 2 ends song alone with last four palm mutes.

Terminology:

. palm mute (PM)      h hammer on
* harmonic            p pull off
~ ring out            v vibrato
m mute 
Comments