Atreyu - Creature Chords & Tabs

 

Creature Chords & Tabs

Atreyu Chords & Tabs

Version: 3 Type: Tab

Creature Tab

   
Drop c

Verse Guitar 1
------------------------------------|
------------------------------------|
------------------------5-----------|
--7--3-5-7--3-5-7-3-5-7---5-3-5-2---|
------------------------------------|
------------------------------------|

Verse Guitar 2
---------------------------------------------------------------|
---------------------------------------------------------------|
---------------------------------------------------------------|
-000000000000000000000000-7-777-77-6-666-66-5-555-55-4-444-44--|
-000000000000000000000000-7-777-77-6-666-66-5-555-55-4-444-44--|
-000000000000000000000000-7-777-77-6-666-66-5-555-55-4-444-44--|

Pre Verse
--------------------------------|
--------------------------------|
---------------777777777777-----|
-3333333333333-777777777777-----|
-3333333333333-555555555555-----|
-3333333333333------------------|
[ Tab from: http://www.guitartabs.cc/tabs/a/atreyu/creature_tab_ver_3.html ]
Chorus
--------------------------------------------------------|
--------------------------------------------------------|
--------------333333333333------------------------------|
-777777777777-333333333333-555555555555-000000000000----|
-777777777777-333333333333-555555555555-000000000000----|
-777777777777--------------555555555555-000000000000----|

Verse Guitar 1
--------------------------------|
--------------------------------|
--------------------------------|
--0--0--3--3--2--2-----------0--|
--------------------4--4-2h4----|
--------------------------------|

------------------------------------------|
------------------------------------------|
----------------------5-------------------|
--7-3-5-7-3-5-7-3-5-7---7-5-3-5-2-7-5-3---|
------------------------------------------|
------------------------------------------|
Verse for Guitar same as before

--------------------------------------------|
--------------------------------------------|
---------------777777777777-----------------|
-3333333333333-777777777777-777-777-777-777-|
-3333333333333-555555555555-777-777-777-777-|
-3333333333333--------------777-777-777-777-|

Figure out the rythm for yourself
----------------------------------------------|
----------------------------------------------|
----------------------------------------------|
-000-000--000-00-000-000-7777-6666-5555-0000--|
-000-000--000-00-000-000-7777-6666-5555-0000--|
-000-000--000-00-000-000-7777-6666-5555-0000--|

Pre Verse

Chorus

Repeat some of verse as outro