Atreyu - Creature Chords & Tabs

 

Creature Chords & Tabs

Atreyu Chords & Tabs

Version: 2 Type: Tab

Creature Tab

Tabbed By: Lutzy
E-mail: Hckymaniac81@hotmail.com
Atreyu, Creature
Album: A Deathgrip on Yesterday

This is my first tab so dont be too critical. I watched the DVD that comes with the cd 
i matched it to how they play so hopefully its right. Im workin on the whole song but i 
id get the verse down first. Ill come back with the rest later.

h - Hammer on
/ - Slide Up
. - Palm Mute


Both Guitar tuning: Drop C (CGCFAD)

Intro/Verse

Guitar 1
                                                                                         
                                                                                        
         (Repeat 6x)
D-----------------------------------------------------------------------------|
A-----------------------------------------------------------------------------|
F-------10--------------------------------------------------------------------|
C-------x------------------------------------------------10-------------------|
G-------8---------8h10/12--------8h10/12---------8h10/12----12-10-8-10--------|
C----------0-0-0------------0-0-0-----------0-0-0-----------------------------|
           . . .            . . .           . . .

D-----------------------------------------------------------------------------|
A-----------------------------------------------------------------------------|
F-----------------------------------------------------------------------------|
C-----------------------------------------------------------------------------|
G---7---------------------6-------------5---------------------4---------------|
C---7---7--7-7-7--7-7-7---6---6-6-6-6---5---5--5-5-5--5-5-5---4--4-4-4-4------|
        .  . . .  . . .       . . . .       .  . . .  . . .      . . . .

[ Tab from: http://www.guitartabs.cc/tabs/a/atreyu/creature_tab_ver_2.html ]
Guitar 2
                                                                   (Repeat 6x)
D-----------------------------------------------------------------------------|
A-----------------------------------------------------------------------------|
F-------7---------------------------------------------------------------------|
C-------x----------------------------------------------------7----------------|
G-------5-----------5h7/8-------------5h7/8------------5h7/8---8-7-5-7--------|
C-----------0-0-0------------0-0-0------------0-0-0---------------------------|

D-----------------------------------------------------------------------------|
A-----------------------------------------------------------------------------|
F-----------------------------------------------------------------------------|
C-----------------------------------------------------------------------------|
G---4---------------------3-------------2---------------------1---------------|
C-------7--7-7-7--7-7-7-------6-6-6-6-------5--5-5-5--5-5-5------4-4-4-4------|
        .  . . .  . . .       . . . .       .  . . .  . . .      . . . .


Pre-Chorus

Guitars 1 & 2

D-----------------------------------------------------------------------------|
A-----------------------------------------------------------------------------|
F-----------------------------7-7-7-7-7-7-7-7-7-7-7-7-------------------------|
C----3-3-3-3-3-3-3-3-3-3-3-3--5-5-5-5-5-5-5-5-5-5-5-5-------------------------|
G----3-3-3-3-3-3-3-3-3-3-3-3--5-5-5-5-5-5-5-5-5-5-5-5-------------------------|
C----3-3-3-3-3-3-3-3-3-3-3-3--5-5-5-5-5-5-5-5-5-5-5-5-------------------------|

Well thats all i have for now so feel free for suggestions, corrections, or comments.  
e-mail is above, and be easy on me, this is my first tab.