Atreyu - Corseting Chords & Tabs

 

Corseting Chords & Tabs

Atreyu Chords & Tabs

Version: 1 Type: Tab 0 ratings
1 star 2 stars 3 stars 4 stars 5 stars
comments

Corseting Tab

Atreyu :Corseting

tuning : drop c

----------------------------------------------------------------|
----------------------------------------------------------------|
----------------------------------------------------------------|
0-2-3-5-6-7-------------0-------------0-000000------------------|
0-2-3-5-6-7-------0h1p0-0-------0h1p0-0-000000------------------|
0-2-3-5-6-7-0h2h3-------0-0h2h3-------0-000000------------------|
                                        pm....
[ Tab from: http://www.guitartabs.cc/tabs/a/atreyu/corseting_tab.html ]
----------------------------------------------------------------|
----------------------------------------------------------------|
----------------------------------------------------------------|
-------------0-------------0--000-------------------------------|
-------0h1p0-0-------0h1p0-0--000---x2--------------------------|
-0h2h3-------0-0h2h3-------0--000-------------------------------|
                              pm..

-----------------------------------------------------------------|
-----------------------------------------------------------------|
-----------------------------------------------------------------|
-000-7p0--000-7p0----000-8p0--000-8p0--000-8-8--000-8-8----------|
-000-7p0--000-7p0-x2-000-8p0--000-8p0--000-8-8--000-8-8----------|
-000-7p0--000-7p0----000-8p0--000-8p0--000-8-8--000-8-8----------|
pm...     ...        ...      ...      ...      ...
Comments