Atreyu - Corseting Chords & Tabs

 

Corseting Chords & Tabs

Atreyu Chords & Tabs

Version: 1 Type: Bass Tab

Corseting Bass Tab

   
-------------------------------------------------------------------------------
			     Corseting - Atreyu
-------------------------------------------------------------------------------

Tabbed By : up_in_flames
e-mail: sk8in_maniac@hotmail.com

Tuning:CGCF

i noticed no 1 has done a bass tab for this song on UG, so i thought what the hell might as well
please rate


Intro
F|--------------------------------------------------------------------------|
C|--------------------------------------------------------------------------|
G|--------------------------------------------------------------------------|
C|--0-3-5-7-8-10------------------------------------------------------------|


Verse part 1
F|--------------------------------------------------------------------------|
C|--------------------------------------------------------------------------|
G|-------3p5---------3p5-----------------3p5---------3p5--------------------|
C|---3p5-----0---3p5-----0-00000000--3p5-----0---3p5-----0-00000000---------|

                                     x 2
F|--------------------------------------|
C|--------------------------------------|
G|--------------------------------------|
C|--1111111111111111-8888888888888888---|
[ Tab from: http://www.guitartabs.cc/tabs/a/atreyu/corseting_btab.html ]
verse part 2                                    x 2
F|-------------------------------------------------|
C|-------------------------------------------------|
G|-------------------------------------------------|
C|--00080-00080--00080-00080--55585-55585--888108--|

chorus                    x 2
F|---------------------------|
C|---------------------------|
G|---------------------------|
C|---5~-------5-3-5-8~-------|


verse part 1

verse part 2 (but do not repeat it as above)

verse part 3
F|--------------------------------------------------------------|-----------|
C|--------------------------------------------------------------|-----------|
G|--------------------------------------------------------------|-----------|
C|--000000000000000000000000--555555555555--888888888888--------|-----------|


chorus


outro    x 30
f|-----------|--------------------------|
C|-----------|--------------------------|
G|-----------|--------3p5---------------|
C|----000----|----3p5-----0-0000--------|


END


thnx, please rate and hope this is good! :)

up_in_flames


| /  slide up
| \  slide down
| h  hammer-on
| p  pull-off
| ~  vibrato
| +  harmonic
| x  Mute note
===============================================================================