Atreyu - Bleeding Mascara Chords & Tabs

 

Bleeding Mascara Chords & Tabs

Atreyu Chords & Tabs

Version: 4 Type: Tab 0 ratings
1 star 2 stars 3 stars 4 stars 5 stars
comments

Bleeding Mascara Tab

Atreyu
Bleeding Mascara (Intro)

Tuning: Drop C

Sounds 100% to me. Enjoy. This sounds awesome once you learn it.

Comments, questions, Email me at jonp137@hotmail.com


|-------13-17-13----------13-17-13----------13-17-13----18-17-15-17-15-13-|
|----15----------15----15----------15----15----------15-------------------|
|-14----------------14----------------14----------------------------------|
|-------------------------------------------------------------------------|
|-------------------------------------------------------------------------|
|-------------------------------------------------------------------------|

|-------13-17-13----------13-17-13-------18--17-15-17-|
|----15----------15----15----------15-----------------|
|-14----------------14----------------14--------------|
|-----------------------------------------------------|
|-----------------------------------------------------|
|-----------------------------------------------------|

|-------13-17-13----------13-17-13----------13-17-13----18-17-15-17-15-13-|
|----15----------15----15----------15----15----------15-------------------|
|-14----------------14----------------14----------------------------------|
|-------------------------------------------------------------------------|
|-------------------------------------------------------------------------|
|-------------------------------------------------------------------------|
[ Tab from: http://www.guitartabs.cc/tabs/a/atreyu/bleeding_mascara_tab_ver_4.html ]
|-------13-17-13----------13-17-13--------------------13-15-17-|
|----15----------15----15----------15--------------15----------|
|-14----------------14----------------14--12-14-15-------------|
|--------------------------------------------------------------|
|--------------------------------------------------------------|
|--------------------------------------------------------------|

|-------13-17-13----------13-17-13----------13-17-13----18-17-15-17-15-13-|
|----15----------15----15----------15----15----------15-------------------|
|-14----------------14----------------14----------------------------------|
|-------------------------------------------------------------------------|
|-------------------------------------------------------------------------|
|-------------------------------------------------------------------------|

|-------13-17-13----------13-17-13-------18--17-15-17-|
|----15----------15----15----------15-----------------|
|-14----------------14----------------14--------------|
|-----------------------------------------------------|
|-----------------------------------------------------|
|-----------------------------------------------------|

|-------13-17-13----------13-17-13----------13-17-13----------13-17-13-------|
|----15----------15----15----------15----15----------15----15----------15----|
|-14----------------14----------------14----------------14----------------14-|
|----------------------------------------------------------------------------|
|----------------------------------------------------------------------------|
|----------------------------------------------------------------------------|

|-18-17-15-17-15-13-15-13--------------------------------^---^--|
|-------------------------17-14-15-17-18-17-15-17-15-13-15b-15b-|
|---------------------------------------------------------------|
|---------------------------------------------------------------|
|---------------------------------------------------------------|
|---------------------------------------------------------------|

End
Comments