Atreyu - Bleeding Mascara Chords & Tabs

 

Bleeding Mascara Chords & Tabs

Atreyu Chords & Tabs

Version: 1 Type: Tab 0 ratings
1 star 2 stars 3 stars 4 stars 5 stars
comments

Bleeding Mascara Tab

Artist: Atreyu
Song: Bleeding Mascara


legend:
~            = let ring
Hb           = 1/2 Bend (half)
Fb           = 1 Bend (full)
x            = Mute String
V            = Vibrate String
p            = Pull Off
h            = Hammer On
\\            = Slide Down
/            = Slide Up
t            = Tap (Right Hand Finger Tap)

Dan Jacobs - Lead guitar
Travis Miguel - Rhythem guitar


Pre-Intro (Travis Miguel)
D|-----||
A|-----||
F|-----||
c|-12\\-||
G|-12\\-||
C|-12\\-||


Intro (Dan Jacobs)
D|----------17----------------17----------------17-------18-17-15-17-15----|
A|-------18----18----------18----18----------18----18-------------------18-|
F|----19----------19----19----------19----19----------19-------------------|
c|-19----------------19----------------19----------------------------------|
G|-------------------------------------------------------------------------|
C|-------------------------------------------------------------------------|

Intro (Travis Miguel)
D|-------------------------------------------------------------------------|
A|-------------------------------------------------------------------------|
F|-------------------------------------------------------------------------|
c|-0--0--0--0--0--0--0--0--0--0--0--0--0--0--0--0--0--0---3--3--3-6--6--6--|
G|-0--0--0--0--0--0--0--0--0--0--0--0--0--0--0--0--0--0---3--3--3-6--6--6--|
C|-0--0--0--0--0--0--0--0--0--0--0--0--0--0--0--0--0--0---3--3--3-6--6--6--|
PM|.  .  .  .  .  .  .  .  .  .  .  .  .  .  .  .  .  .   .  .  . .  .  .


Intro cont. (Dan Jacobs)
D|----------17----------------17----------17Hb-------17-15-17~-------------|
A|-------18----18----------18----18----------------------------------------|
F|----19----------19----19----------19-------------------------------------|
c|-19----------------19----------------19----------------------------------|
G|-------------------------------------------------------------------------|
C|-------------------------------------------------------------------------|

Intro cont. (Travis Miguel)
D|-------------------------------------------------------------------------|
A|-------------------------------------------------------------------------|
F|-------------------------------------------------------------------------|
c|-5--5--5--5--5--5--5--5--5--5--5--5--8--8--8--8--8--8--8--8--8--8--8--8--|
G|-5--5--5--5--5--5--5--5--5--5--5--5--8--8--8--8--8--8--8--8--8--8--8--8--|
C|-5--5--5--5--5--5--5--5--5--5--5--5--8--8--8--8--8--8--8--8--8--8--8--8--|
PM|.  .  .  .  .  .  .  .  .  .  .  .  .  .  .  .  .  .  .  .  .  .  .  .


Intro cont. (Dan Jacobs)
D|----------17----------------17----------------17-------18-17-15-17-15----|
A|-------18----18----------18----18----------18----18-------------------18-|
F|----19----------19----19----------19----19----------19-------------------|
c|-19----------------19----------------19----------------------------------|
G|-------------------------------------------------------------------------|
C|-------------------------------------------------------------------------|

Intro cont. (Travis Miguel)
D|-------------------------------------------------------------------------|
A|-------------------------------------------------------------------------|
F|-------------------------------------------------------------------------|
c|-0--0--0--0--0--0--0--0--0--0--0--0--0--0--0--0--0--0---3--3--3-6--6--6--|
G|-0--0--0--0--0--0--0--0--0--0--0--0--0--0--0--0--0--0---3--3--3-6--6--6--|
C|-0--0--0--0--0--0--0--0--0--0--0--0--0--0--0--0--0--0---3--3--3-6--6--6--|
PM|.  .  .  .  .  .  .  .  .  .  .  .  .  .  .  .  .  .   .  .  . .  .  .


Intro cont. (Dan Jacobs)
D|----------17----------------17---------------------------15-15Fb---------|
A|-------18----18----------18----18---------------------18-----------------|
F|----19----------19----19----------19---------------18--------------------|
c|-19----------------19----------------19x---------------------------------|
G|-------------------------------------------------------------------------|
C|-------------------------------------------------------------------------|

Intro cont. (Travis Miguel)
D|-------------------------------------------------------------------------|
A|-------------------------------------------------------------------------|
F|-------------------------------------------------------------------------|
c|-5--5--5--5--5--5--5--5--5--5--5--5--8--8--8--8--8--8--8--8--8--8--8--8--|
G|-5--5--5--5--5--5--5--5--5--5--5--5--8--8--8--8--8--8--8--8--8--8--8--8--|
C|-5--5--5--5--5--5--5--5--5--5--5--5--8--8--8--8--8--8--8--8--8--8--8--8--|
PM|.  .  .  .  .  .  .  .  .  .  .  .  .  .  .  .  .  .  .  .  .  .  .  .


Intro cont. (Dan Jacobs)
D|----------17----------------17----------------17-------18-17-15-17-15----|
A|-------18----18----------18----18----------18----18-------------------18-|
F|----19----------19----19----------19----19----------19-------------------|
c|-19----------------19----------------19----------------------------------|
G|-------------------------------------------------------------------------|
C|-------------------------------------------------------------------------|

Intro cont. (Travis Miguel)
D|-------------------------------------------------------------------------|
A|-------------------------------------------------------------------------|
F|-------------------------------------------------------------------------|
c|-0~-----------------------------------------------------3-------6--------|
G|-0~-----------------------------------------------------3-------6--------|
C|-0~-----------------------------------------------------3-------6--------|


Intro cont. (Dan Jacobs)
D|----------17----------------17----------17Hb-------17-15-17~-------------|
A|-------18----18----------18----18----------------------------------------|
F|----19----------19----19----------19-------------------------------------|
c|-19----------------19----------------19----------------------------------|
G|-------------------------------------------------------------------------|
C|-------------------------------------------------------------------------|

Intro cont. (Travis Miguel)
D|-------------------------------------------------------------------------|
A|-------------------------------------------------------------------------|
F|-------------------------------------------------------------------------|
c|-5~-------------------------------------10~------------------------------|
G|-5~-------------------------------------8 ~------------------------------|
C|-5~-------------------------------------8 ~------------------------------|


Intro cont. (Dan Jacobs)
D|----------17----------------17----------------17----------------17-----------|
A|-------18----18----------18----18----------18----18----------18----18--------|
F|----19----------19----19----------19----19----------19----19----------19-----|
c|-19----------------19----------------19----------------19----------------19--|
G|-----------------------------------------------------------------------------|
C|-----------------------------------------------------------------------------|

Intro cont. (Travis Miguel)
D|-----------------------------------------------------------------------------|
A|-----------------------------------------------------------------------------|
F|-----------------------------------------------------------------------------|
c|-0~-----------------------------------------------------3-------6~--------x--|
G|-0~-----------------------------------------------------3-------6~--------x--|
C|-0~-----------------------------------------------------3-------6~--------x--|


Intro cont. (Dan Jacobs)
D|-18-17-15-17-15----15-----------------------------------------------||
A|----------------18----18-17----15-17-18-17-15-17-15-----------------||
F|----------------------------18----------------------17---17Fb-17Fb--||
c|--------------------------------------------------------------------||
G|--------------------------------------------------------------------||
C|--------------------------------------------------------------------||

D|--------------------------------------------------------------------||
A|--------------------------------------------------------------------||
F|--------------------------------------------------------------------||
c|-5x------------------------------------------------------5----3-----||
G|-5x------------------------------------------------------5----3-----||
C|-5x------------------------------------------------------5----3-----||



Verse (Jacobs and Travis together)
D||------------------------------------------|
A||------------------------------------------|
F||o-----------------------------------------|
c||o-000--8p5--5p3--000--8p5--5h3--000--8~~--|
G||--000--8p5--5p3--000--8p5--5h3--000--8~~--|
C||--000--8p5--5p3--000--8p5--5h3--000--8~~--|
PM|  ...            ...            ...  

Verse cont. (Jacobs and Travis together)
D|-----------------------------------------|
A|-----------------------------------------|
F|-----------------------------------------|
c|-000--8p5--5p3--000--8p5--5h3--000--1~~--|
G|-000--8p5--5p3--000--8p5--5h3--000--1~~--|
C|-000--8p5--5p3--000--8p5--5h3--000--1~~--|
PM|...            ...            ...
[ Tab from: http://www.guitartabs.cc/tabs/a/atreyu/bleeding_mascara_tab.html ]
Verse cont. (Jacobs and Travis together)
D|-------------------------|
A|-------------------------|
F|-----7/8------11/12------|
c|-00--x-x--00--x--x--0000-|
G|-00--5/6--00--9-/10-0000-|
C|-00-------00--------0000-|
PM|..       ..        ....


Verse cont. (Dan Jacobs)
D|--------------------------------------------------||
A|--------------------------------------------------||
F|-10-10-10-10-10-10-10-10--7--7--7--7--7--7--7--7-o||
c|-x--x--x--x--x--x--x--x---x--x--x--x--x--x--x--x-o||
G|-8--8--8--8--8--8--8--8---5--5--5--5--5--5--5--5--||
C|--------------------------------------------------||

Verse Cont. (Travis Miguel)
D|--------------------------------------------------||
A|--------------------------------------------------||
F|-------------------------------------------------o||
c|-11-11-11-11-11-11-11-11--8--8--8--8--8--8--8--8-o||
G|-11-11-11-11-11-11-11-11--8--8--8--8--8--8--8--8--||
C|-11-11-11-11-11-11-11-11--8--8--8--8--8--8--8--8--||


Pre-Chorus (Dan Jacobs)
D|--------------------------------------------------||
A|--------------------------------------------------||
F|-10-10-10-10-10-10-10-10--7--7--7--7--7--7--7--7--||
c|-x--x--x--x--x--x--x--x---x--x--x--x--x--x--x--x--||
G|-8--8--8--8--8--8--8--8---5--5--5--5--5--5--5--5--||
C|--------------------------------------------------||

Pre-Chorus (Travis Miguel)
D|--------------------------------------------------||
A|--------------------------------------------------||
F|--------------------------------------------------||
c|-11-11-11-11-11-11-11-11--8--8--8--8--8--8--8--8--||
G|-11-11-11-11-11-11-11-11--8--8--8--8--8--8--8--8--||
C|-11-11-11-11-11-11-11-11--8--8--8--8--8--8--8--8--||


Chorus (Dan Jacobs)
D|-------------------------------------------------------------|
A|-------------------------------------------------------------|
F|-3--------------5-----------------------10----9--------5-----|
c|-x--------------x--------------0--------x-----x--------x-----|
G|-1--------------3--------------0--------8-----7--------3-----|
C|-------------------------------0-----------------------------|

Chorus (Travis Miguel)
D|-------------------------------------------------------------|
A|-------------------------------------------------------------|
F|-------------------------------------------------------------|
c|-5-5--5-5-5--5--8-8--8-8-8--8--0-0--0-0-0--0--3-3--3-3-3--3--|
G|-5-5--5-5-5--5--8-8--8-8-8--8--0-0--0-0-0--0--3-3--3-3-3--3--|
C|-5-5--5-5-5--5--8-8--8-8-8--8--0-0--0-0-0--0--3-3--3-3-3--3--|


Chorus cont. (Dan Jacobs)
D|-------------------------------------------------------------|
A|-------------------------------------------------------------|
F|-3--------------7-----------------------10----9--------14----|
c|-x--------------x--------------0--------x-----x--------x-----|
G|-1--------------5--------------0--------8-----7--------12----|
C|-------------------------------0-----------------------------|

Chorus cont. (Travis Miguel)
D|-------------------------------------------------------------|
A|-------------------------------------------------------------|
F|-------------------------------------------------------------|
c|-5-5--5-5-5--5--8-8--8-8-8--8--0-0--0-0-0--0--3-3--3-3-3--3--|
G|-5-5--5-5-5--5--8-8--8-8-8--8--0-0--0-0-0--0--3-3--3-3-3--3--|
C|-5-5--5-5-5--5--8-8--8-8-8--8--0-0--0-0-0--0--3-3--3-3-3--3--|


Chorus cont. (Dan Jacobs)
D|-------------------------------------------------------------|
A|-------------------------------------------------------------|
F|-12-------------10----------------------10----9--------5-----|
c|-x--------------x--------------0--------x-----x--------x-----|
G|-10-------------8--------------0--------8-----7--------3-----|
C|-------------------------------0-----------------------------|


Chorus cont. (Travis Miguel)
D|-------------------------------------------------------------|
A|-------------------------------------------------------------|
F|-------------------------------------------------------------|
c|-5-5--5-5-5--5--8-8--8-8-8--8--0-0--0-0-0--0--3-3--3-3-3--3--|
G|-5-5--5-5-5--5--8-8--8-8-8--8--0-0--0-0-0--0--3-3--3-3-3--3--|
C|-5-5--5-5-5--5--8-8--8-8-8--8--0-0--0-0-0--0--3-3--3-3-3--3--|


Chorus cont. (Dan Jacobs)
D|-----------------------------------------||
A|-----------------------------------------||
F|-3--------------7------------------------||
c|-x--------------x------------------------||
G|-1--------------5------------------------||
C|-----------------------------------------||


Chorus cont. [Travis Miguel]
D|-----------------------------------------||
A|-----------------------------------------||
F|-----------------------------------------||
c|-5-5--5-5-5--5--8-8-8-8-8-8-8-8-8-8-8-8--||
G|-5-5--5-5-5--5--8-8-8-8-8-8-8-8-8-8-8-8--||
C|-5-5--5-5-5--5--8-8-8-8-8-8-8-8-8-8-8-8--||

Repeat Verse

[Guitar 2 Travis Miguel] Play this until the solo is finished.
D|-----------------------------------------------||
A|-----------------------------------------------||
F|-----------------------------------------------||
c|-00000-00000--3h6-3h5--0-0-0-0-0-0-0--3h6-3h5--||6X
G|-00000-00000--3h6-3h5--0-0-0-0-0-0-0--3h6-3h5--||
C|-00000-00000--3h6-3h5--0-0-0-0-0-0-0--3h6-3h5--||
PM|..... .....           . . . . . . .

Solo: [Guitar 1 Dan Jacobs]
D|------------------------------------------------------------------------------------|
A|13b15-13b15v~~~--18p15p18p15p18p15p18p15-15r13-13p11h13v~~~-------------------------|
F|------------------------------------------------------------------------------------|
C|------------------------------------------------------------------------------------|
G|------------------------------------------------------------------------------------|
C|------------------------------------------------------------------------------------|

D|------13-17-13----------13-17-13----------11-15-11----------11-15-11----------------|
A|---15----------15----15----------15----13----------13----13----------13-------------|
F|14----------------14----------------12----------------12----------------------------|
C|------------------------------------------------------------------------------------|
G|------------------------------------------------------------------------------------|
C|------------------------------------------------------------------------------------|

D|------15-19-15----------15-19-15----------13-17-13----------13-17-13----------------|
A|---17----------17----17----------17----15----------15----15----------15-------------|
F|16----------------16----------------14----------------14----------------------------|
C|------------------------------------------------------------------------------------|
G|------------------------------------------------------------------------------------|
C|------------------------------------------------------------------------------------|

D|18b19~-18b19v~~---18-17-15-17-15-12--17---15---12-----------------------------------|
A|----------------------------------------------------16v~~---------------------------|
F|------------------------------------------------------------------------------------|
C|------------------------------------------------------------------------------------|
G|------------------------------------------------------------------------------------|
C|------------------------------------------------------------------------------------|

D|------------17--16--15--14--15--16--15--16--17--18b20~~~~-------17-20-17-20-20b22~~-|
A|----17--16------------------------------------------------15-18---------------------|
F|14----------------------------------------------------------------------------------|
C|------------------------------------------------------------------------------------|
G|------------------------------------------------------------------------------------|
C|------------------------------------------------------------------------------------|


Repeat Chorus

Outro (Dan Jacobs)
D|-----------------------------------------------------------------------|
A|-----------------------------------------------------------------------|
F|--------10------9------14------12-------------10-----------------------|
c|-0------x-------x------x-------x--------------x------------------------|
G|-0------8-------7------12------10-------------8------------------------|
C|-0---------------------------------------------------------------------|

Outro (Travis Miguel)
D|-----------------------------------------------------------------------|
A|-----------------------------------------------------------------------|
F|-----------------------------------------------------------------------|
c|-0-0--0-0-0--0--8-8--8-8-8--8--5-5--5-5-5--5--8-8-8-8-8-8-8-8-8-8-8-8--|
G|-0-0--0-0-0--0--8-8--8-8-8--8--5-5--5-5-5--5--8-8-8-8-8-8-8-8-8-8-8-8--|
C|-0-0--0-0-0--0--8-8--8-8-8--8--5-5--5-5-5--5--8-8-8-8-8-8-8-8-8-8-8-8--|

Outro cont. (Dan Jacobs)
D|--------------------------------||||
A|--------------------------------||||
F|-12-------------10----9-----7~--||||
c|-x--------------x-----x-----x---||||
G|-10-------------8-----7-----5~--||||
C|--------------------------------||||

Outro cont. (Travis Miguel)
D|--------------------------------||||
A|--------------------------------||||
F|--------------------------------||||
c|-5-5--5-5-5--5--3-----2-----0~--||||
G|-5-5--5-5-5--5--3-----2-----0~--||||
C|-5-5--5-5-5--5--3-----2-----0~--||||

Here you have it. Bleeding Mascara
Comments