Atreyu - An Interlude Chords & Tabs

 

An Interlude Chords & Tabs

Atreyu Chords & Tabs

Version: 1 Type: Tab 0 ratings
1 star 2 stars 3 stars 4 stars 5 stars
comments

An Interlude Tab

   
                                  AN INTERLUDE
                              As recorded by Atreyu
                         (From the 2004 Album THE CURSE)

Words and Music by Atreyu
Arranged by Atreyu
Transcribed by Gabriel Ortiz

         F#m11
      x 9 7 9 7 7

 Intro
  Slowly Q=80
  F#m11
 4/4
  Gtr I
|-------------------------7-------|-------------------------7-------|
|---------7-------------7---7-----|---------7-------------7---7-----|
|-----9-----9---9-----9-------9---|-----9-----9---9-----9-------9---|
|---7---7-----7-----7-----------7-|---7---7-----7-----7-----------7-|
|-9---------------9---------------|-9---------------9---------------|
|---------------------------------|---------------------------------|


    F#m11
    Gtr I
||---------------------------------7--------|
||o------------7----------------7----7------|
||--------9------9----9-------9---------9---|
||-----7----7-------7------7--------------7-|
||o--9-------------------9------------------|
||------------------------------------------|
|
|   Gtr II
||------------------------------------------|
||o-----------10------------------10--------|
||-----9----9----9----9----9----9----9----9-|
||--11---11--------11---11---11--------11---|
||o-----------------------------------------|
||------------------------------------------|


|--------------------------------------7----------|
|--------------7--------------------7-----7-------|
|--------9--------9-----9--------9-----------9----|
|-----7-----7--------7--------7-----------------7-|
|--9-----------------------9----------------------|
|-------------------------------------------------|
|
|-------------------------------------------------|
|-------------10----------------------10----------|
|----11----11----11----11----11----11----11----11-|
|-11----11----------11----11----11----------11----|
|-------------------------------------------------|
|-------------------------------------------------|


  F#m11
|--------------------------------7--------|
|------------7----------------7----7------|
|-------9------9----9-------9---------9---|
|----7----7-------7------7--------------7-|
|--9-------------------9------------------|
|-----------------------------------------|
|
|-----------------------------------------|
|-----------10------------------10--------|
|----9----9----9----9----9----9----9----9-|
|-11---11--------11---11---11--------11---|
|-----------------------------------------|
|-----------------------------------------|


                                            3x
|--------------------------------7----------||
|------------7----------------7----7-------o||
|-------9------9----9-------9---------9-----||
|----7----7-------7------7--------------7---||
|--9-------------------9-------------------o||
|-------------------------------------------||
|
|                                           3x
|-------------------------------------------||
|-----------12------------------12---------o||
|----9----9----9----9----9----9----9----9---||
|-11---11--------11---11---11--------11-----||
|------------------------------------------o||
|-------------------------------------------||

[ Tab from: http://www.guitartabs.cc/tabs/a/atreyu/an_interlude_tab.html ]
   Main Theme
    N.C.
                                                                        4x
||---------------------------|------------------------------------------||
||o--------------------------|-----------------------------------------o||
||-----------9------7-(7)----|--------9-----7-(7)-6-(6)-6-6h=7p6--------||
||-----7-------7-------------|----7-----7-------------------------7-----||
||o--9----9-------9----------|-9----9-----9--------------------------7-o||
||---------------------------|------------------------------------------||
|
|                                                                       4x
||---------------------------|------------------------------------------||
||o---------10------7-(7)----|---10---9-----7-(7)----------------------o||
||-----9-------9-------------|--------------------9-----9-9h11p9--------||
||--11---11------11----------|-----------------------------------11-----||
||o--------------------------|--------------------------------------12-o||
||---------------------------|------------------------------------------||


   Bridge
    Bsus4
         \0.5
||--^7--(7)---(7)-(7)--(7)-7-(7)---|-------||
||o-^7--(7)---(7)-(7)--(7)-------7-|------o||
||--^9--(9)---(9)-(9)--(9)---------|-9-----||
||--^9--(9)---(9)-(9)--(9)---------|-------||
||o--------------------------------|------o||
||---------------------------------|-------||
|
|        \0.5
||--^7--(7)---(7)-(7)--(7)-7-(7)---|-------||
||o-^7--(7)---(7)-(7)--(7)-------7-|------o||
||--^9--(9)---(9)-(9)--(9)---------|-9-----||
||--^9--(9)---(9)-(9)--(9)---------|-------||
||o--------------------------------|------o||
||---------------------------------|-------||


   Main Theme
    N.C.
                                                                        4x
||---------------------------|------------------------------------------||
||o--------------------------|-----------------------------------------o||
||-----------9------7-(7)----|--------9-----7-(7)-6-(6)-6-6h=7p6--------||
||-----7-------7-------------|----7-----7-------------------------7-----||
||o--9----9-------9----------|-9----9-----9--------------------------7-o||
||---------------------------|------------------------------------------||
|
|                                                                       4x
||---------------------------|------------------------------------------||
||o---------10------7-(7)----|---10---9-----7-(7)----------------------o||
||-----9-------9-------------|--------------------9-----9-9h11p9--------||
||--11---11------11----------|-----------------------------------11-----||
||o--------------------------|--------------------------------------12-o||
||---------------------------|------------------------------------------||


   Outro
    N.C.
||---------------------------|------------------------------------------||
||o--------------------------|-----------------------------------------o||
||-----------9------7-(7)----|--------9-----7-(7)-6-(6)-6-6h=7p6--------||
||-----7-------7-------------|----7-----7-------------------------7-----||
||o--9----9-------9----------|-9----9-----9--------------------------7-o||
||---------------------------|------------------------------------------||
|
||---------------------------|------------------------------------------||
||o---------10------7-(7)----|---10---9-----7-(7)----------------------o||
||-----9-------9-------------|--------------------9-----9-9h11p9--------||
||--11---11------11----------|-----------------------------------11-----||
||o--------------------------|--------------------------------------12-o||
||---------------------------|------------------------------------------||


  N.C.
|--------------------------|-----*|
|--------------------------|-----*|
|----------9------7-(7)----|-----*|
|----7-------7-------------|-----*|
|--9----9-------9----------|-----*|
|--------------------------|-----*|
|
|--------------------------|-----*|
|---------10------7-(7)----|-----*|
|----9-------9-------------|-----*|
|-11---11------11----------|-----*|
|--------------------------|-----*|
|--------------------------|-----*|
Comments