Atreyu - An Interlude Chords & Tabs

 

An Interlude Chords & Tabs

Atreyu Chords & Tabs

Version: 1 Type: Bass Tab 0 ratings
1 star 2 stars 3 stars 4 stars 5 stars
comments

An Interlude Bass Tab

   
AN INTERLUDE (Bassline)
As recorded by Atreyu
(From the 2004 Album THE CURSE)


Gtr I (C G C F)

 Intro
  Slowly Q=80
 4/4
  Gtr I
|-----|
|-----|
|-----|
|-----|


|--------------|-----------|----------------|-------------|
|---------4----|-----------|---------4--/6--|-------------|
|-----2h4------|-/5--------|-----2h4--------|-5-----------|
|-4------------|-----------|-4--------------|--------9\---|


|--------------|------------------|--------------|-------------------|
|---------4----|------------------|---------4----|-------------------|
|-----2h4------|-/5---------------|-----2h4------|-/5----------------|
|-4------------|------0--0-0-(0)--|-4------------|------0--0-0-(0)---|


|--------------|------------------|
|---------4----|------------------|
|-----2h4------|-/5---------------|
|-4------------|------0--0-0-(0)--|


|-----------------------|--------------------||
|-----------------------|-----7-(7)-9-(9)S4--||
|-----------------------|--------------------||
|-4---6--6-7-(7)-9-(9)\-|-0------------------||


   Main Theme
                                                    3x
||----------------------------|---------------------||
||o---------------------------|-----7-(7)-9-(9)S4\-o||
||o---------2-0-2-------------|--------------------o||
||--4-0-2-4-------4--4-4-(4)--|-0-------------------||


|---------------------------|--------------------||
|---------------------------|-----4-(4)-6-(6)-7\-||
|---------2-0-2-------------|--------------------||
|-4-0-2-4-------4--4-4-(4)--|-0------------------||

[ Tab from: http://www.guitartabs.cc/tabs/a/atreyu/an_interlude_btab.html ]
 Bridge
|---------------|---------------|---------------|-------------------------||
|---------------|---------------|---------------|------------6-6-6-7-7\---||
|---------------|---------------|---------------|-------------------------||
|-9-------(9)-0-|--0-0-(0)------|-9-------(9)-0-|--0-0-(0)----------------||


   Main Theme
                                                    3x
||----------------------------|---------------------||
||o---------------------------|-----7-(7)-9-(9)S4\-o||
||o---------2-0-2-------------|--------------------o||
||--4-0-2-4-------4--4-4-(4)--|-0-------------------||


|---------------------------|---------------------||
|---------------------------|-----/9-(9)-7-(7)-4\-||
|---------2-0-2-------------|---------------------||
|-4-0-2-4-------4--4-4-(4)--|-0-------------------||


 Outro
|--------------|-----------|--------------|-------------|
|-------4------|-----------|-------4------|-------------|
|---2h4--------|-5---------|---2h4--------|-5-----------|
|-4------------|------0----|-4------------|-----0--0----|


|--------------|------*|
|-------4------|------*|
|---2h4--------|------*|
|-4------------|-0----*|



Tablature Legend
----------------
 h   - hammer-on
 p   - pull-off
 b   - bend
 pb  - pre-bend
 r   - bend release (if no number after the r, then release immediately)
 /\  - slide into or out of (from/to "nowhere")
 s   - legato slide
 S   - shift slide
 - natural harmonic
[n]  - artificial harmonic
n(n) - tapped harmonic
 ~   - vibrato
 tr  - trill
 T   - tap
 TP  - trem. picking
 PM  - palm muting
\n/  - tremolo bar dip; n = amount to dip
 \n  - tremolo bar down
 n/  - tremolo bar up
/n\  - tremolo bar inverted dip
 =   - hold bend; also acts as connecting device for hammers/pulls
 <> - volume swell (louder/softer)
 x   - on rhythm slash represents muted slash
 o   - on rhythm slash represents single note slash

Misc Legend
-----------
 |  - bar
||  - double bar
||o - repeat start
o|| - repeat end
*|  - double bar (ending)
 :  - bar (freetime)
 $  - Segno
 &  - Coda
Tempo markers -  = BPM(8/16=s8/s16), where s8 = swing 8ths, s16 = swing 16ths
Comments