Atreyu - Aint Love Grand Chords & Tabs

 

Aint Love Grand Chords & Tabs

Atreyu Chords & Tabs

Version: 6 Type: Tab 0 ratings
1 star 2 stars 3 stars 4 stars 5 stars
comments

Aint Love Grand Tab

   
                                AIN'T LOVE GRAND
                              As recorded by Atreyu
            (From the 2002 Album SUICIDE NOTES AND BUTTERFLY KISSES)

Words and Music by Atreyu
Arranged by Atreyu
Transcribed by Gabriel Ortiz

 Intro
  Moderate Rock Q=104
  N.C.
 4/4
  Gtr I
|-----|
|-----|
|-----|
|-----|
|-----|
|-----|


    N.C.
||-------------------------------------|-------------------------------------||
||o------------------------------------|------------------------------------o||
||------9---9-10---9-(9)---9---12-10-9-|-----9---9-10---9-(9)---9---10-9-7---||
||--0-0---0------0-------0---0---------|-0-0---0------0-------0---0----------||
||o------------------------------------|------------------------------------o||
||-------------------------------------|-------------------------------------||


   Chorus
    $
    D5             F5
    Gtr I
||-----------------------------------------|
||o----------------------------------------|
||------9---9-10---9-(9)---9-----12-10-9---|
||--0-0---0------0-------0----0------------|
||o----------------------------------------|
||-----------------------------------------|
|
|   Gtr II
||-----------------------------------------|
||o----------------------------------------|
||-----------------------------------------|
||--0---0---0--0-0-3-(3)-3-3-(3)--3--3-3-3-|
||o-0---0---0--0-0-3-(3)-3-3-(3)--3--3-3-3-|
||--0---0---0--0-0-3-(3)-3-3-(3)--3--3-3-3-|


  C5                 Bb5
                                              4x
|---------------------------------------------||
|--------------------------------------------o||
|-------9----9-10----9-(9)---9-----10-9-7-----||
|--0-0----0--------0-------0----0-------------||
|--------------------------------------------o||
|---------------------------------------------||
|
|                                             4x
|---------------------------------------------||
|--------------------------------------------o||
|---------------------------------------------||
|-10---10---10-10-10-8-(8)-8-8-(8)--8-8-8-8---||
|-10---10---10-10-10-8-(8)-8-8-(8)--8-8-8-8--o||
|-10---10---10-10-10-8-(8)-8-8-(8)--8-8-8-8---||


 Verse
  (Bbsus2)
  PM|    PM|    PM   PM|    PM|    PM
|---------------------------------------|
|---------------------------------------|
|-----10-----10---10-----10-----10---10-|
|-----10-----10---10-----10-----10---10-|
|-8-8----8-8----8----8-8----8-8----8----|
|-8-8----8-8----8----8-8----8-8----8----|
|
|---------------------------------------|
|---------------------------------------|
|-x-x-10-x-x-10-x-10-x-x-10-x-x-10-x-10-|
|-x-x--x-x-x--x-x--x-x-x--x-x-x--x-x--x-|
|-x-x--8-x-x--8-x--8-x-x--8-x-x--8-x--8-|
|---------------------------------------|


  (Dm7)
  PM|    PM|    PM   PM|    PM|    PM
|---------------------------------------|
|---------------------------------------|
|-----10-----10---10-----10-----10---10-|
|-----10-----10---10-----10-----10---10-|
|-0-0----0-0----0----0-0----0-0----0----|
|-0-0----0-0----0----0-0----0-0----0----|
|
|---------------------------------------|
|---------------------------------------|
|-x-x-10-x-x-10-x-10-x-x-10-x-x-10-x-10-|
|-x-x--x-x-x--x-x--x-x-x--x-x-x--x-x--x-|
|-x-x--8-x-x--8-x--8-x-x--8-x-x--8-x--8-|
|---------------------------------------|


  (Bbsus2)
  PM|       PM   PM   PM|    PM|    PM
|----------------------------------------|
|----------------------------------------|
|-----10-10---10---10-----10-----10---10-|
|-----10-10---10---10-----10-----10---10-|
|-8-8-------8----8----8-8----8-8----8----|
|-8-8-------8----8----8-8----8-8----8----|
|
|----------------------------------------|
|----------------------------------------|
|-x-x-10--x-x-10-x-10-x-x-10-x-x-10-x-10-|
|-x-x--x--x-x--x-x--x-x-x--x-x-x--x-x--x-|
|-x-x--8--x-x--8-x--8-x-x--8-x-x--8-x--8-|
|----------------------------------------|


  (Dm7)                       N.C.
  PM|    PM|    PM   PM|    PM
|-----------------------------------------|
|-----------------------------------------|
|-----10-----10---10-----10---------------|
|-----10-----10---10-----10---------------|
|-0-0----0-0----0----0-0----0-8h10p8-7h8--|
|-0-0----0-0----0----0-0----0-------------|
|
|-----------------------------------------|
|-----------------------------------------|
|-x-x-10-x-x-10-x-10-x-x-10-x-------------|
|-x-x-10-x-x-10-x-10-x-x-10-x-7h=8p7-5h7--|
|-----------------------------------------|
|-----------------------------------------|


  (Bbsus2)
  PM|    PM|    PM   PM|    PM|    PM
|---------------------------------------|
|---------------------------------------|
|-----10-----10---10-----10-----10---10-|
|-----10-----10---10-----10-----10---10-|
|-8-8----8-8----8----8-8----8-8----8----|
|-8-8----8-8----8----8-8----8-8----8----|
|
|---------------------------------------|
|---------------------------------------|
|-x-x-10-x-x-10-x-10-x-x-10-x-x-10-x-10-|
|-x-x--x-x-x--x-x--x-x-x--x-x-x--x-x--x-|
|-x-x--8-x-x--8-x--8-x-x--8-x-x--8-x--8-|
|---------------------------------------|


  (Dm7)
  PM|    PM|    PM   PM|    PM|    PM
|---------------------------------------|
|---------------------------------------|
|-----10-----10---10-----10-----10---10-|
|-----10-----10---10-----10-----10---10-|
|-0-0----0-0----0----0-0----0-0----0----|
|-0-0----0-0----0----0-0----0-0----0----|
|
|---------------------------------------|
|---------------------------------------|
|-x-x-10-x-x-10-x-10-x-x-10-x-x-10-x-10-|
|-x-x--x-x-x--x-x--x-x-x--x-x-x--x-x--x-|
|-x-x--8-x-x--8-x--8-x-x--8-x-x--8-x--8-|
|---------------------------------------|


  (Bbsus2)                           G5
  PM|    PM|    PM   PM|    PM|    PM
|--------------------------------------|----------------------------------||
|--------------------------------------|----------------------------------||
|-----10-----10---10-----10-----10-----|----------------------------------||
|-----10-----10---10-----10-----10---5-|-(5)-5-5-5-5-5-5-5-5-5-5-5-5-5-5--||
|-8-8----8-8----8----8-8----8-8----8-5-|-(5)-5-5-5-5-5-5-5-5-5-5-5-5-5-5--||
|-8-8----8-8----8----8-8----8-8----8-5-|-(5)-5-5-5-5-5-5-5-5-5-5-5-5-5-5--||
|
|--------------------------------------|----------------------------------||
|--------------------------------------|----------------------------------||
|-x-x-10-x-x-10-x-10-x-x-10-x-x-10-x---|----------------------------------||
|-x-x--x-x-x--x-x--x-x-x--x-x-x--x-x-5-|-(5)-5-5-5-5-5-5-5-5-5-5-5-5-5-5--||
|-x-x--8-x-x--8-x--8-x-x--8-x-x--8-x-5-|-(5)-5-5-5-5-5-5-5-5-5-5-5-5-5-5--||
|------------------------------------5-|-(5)-5-5-5-5-5-5-5-5-5-5-5-5-5-5--||


    D5                      G5
    PM--------------|
||----------------------------|---------------------------------------|
||o---------------------------|---------------------------------------|
||--------------------5s7---5-|-(5)-5-5-(5)-5s7---4-(4)-4-4-4-4-4-4-4-|
||--------------------x-----x-|-----x-x-----x-----x-----x-x-x-x-x-x-x-|
||o-0-0-0-0-0-0-0-0-0-3s5---3-|-(3)-3-3-(3)-3s5---2-(2)-2-2-2-2-2-2-2-|
||--0-0-0-0-0-0-0-0-0---------|---------------------------------------|
|
|   PM--------------------|
||----------------------------|---------------------------------------|
||o---------------------------|---------------------------------------|
||----------------------------|---------------------------------------|
||--------------------------5-|-(5)-5-5--5--5-5-5-5--5--5-5-5-5-5-5-5-|
||o-0-0-0-0-0-0-0-0-0-0-0-0-5-|-(5)-5-5--5--5-5-5-5--5--5-5-5-5-5-5-5-|
||--0-0-0-0-0-0-0-0-0-0-0-0-5-|-(5)-5-5--5--5-5-5-5--5--5-5-5-5-5-5-5-|

[ Tab from: http://www.guitartabs.cc/tabs/a/atreyu/aint_love_grand_tab_ver_6.html ]
                                                                    D.S.
  D5                            G5
  PM|     PM|     PM|
|---------------------------------|----------------------------------------||
|---------------------------------|---------------------------------------o||
|-------------------------5s7---5-|-(5)-5-5-(5)-5s7---4-(4)-4-4-4-4-4-4-4--||
|-------------------------x-----x-|-----x-x-----x-----x-----x-x-x-x-x-x-x--||
|-0-0-----0-0-----0-0-----3s5---3-|-(3)-3-3-(3)-3s5---2-(2)-2-2-2-2-2-2-2-o||
|-0-0-<2>-0-0-<2>-0-0-<2>---------|----------------------------------------||
|
| PM|     PM|     PM|
|---------------------------------|----------------------------------------||
|---------------------------------|---------------------------------------o||
|---------------------------------|----------------------------------------||
|-------------------------------5-|-(5)-5-5--5--5-5-5-5--5--5-5-5-5-5-5-5--||
|-0-0-----0-0-----0-0-----0-0-0-5-|-(5)-5-5--5--5-5-5-5--5--5-5-5-5-5-5-5-o||
|-0-0-<2>-0-0-<2>-0-0-<2>-0-0-0-5-|-(5)-5-5--5--5-5-5-5--5--5-5-5-5-5-5-5--||


   Breakdown
    D5                      C5/G       G
||-----------|------------|----------|-------||
||o----------|------------|----------|------o||
||-----------|------------|-5--------|-4-----||
||--0--------|-(0)--------|-5--------|-5-----||
||o-0--------|-(0)--------|-3--------|-2----o||
||--0--------|-(0)--------|----------|-------||
|
|                                      ~
||-----------|------------|----------|-------||
||o----------|------------|----------|------o||
||-----------|------------|----------|-------||
||--0--------|-(0)--------|----------|-------||
||o-0--------|-(0)--------|-3--------|------o||
||--0--------|-(0)--------|-5--------|-5-----||


  D5                                    C5/G        G
|-----------|-------------------------|-----------|------------------------|
|-----------|-------------------------|-----------|------------------------|
|-----------|-------------------------|-5---------|---4--------------------|
|-0---------|--(0)--------------------|-5---------|---5--------------------|
|-0---------|--(0)--------------------|-3---------|---2--------------------|
|-0---------|--(0)--------------------|-----------|------------------------|
|
|-----------|-------------------------|-----------|------------------------|
|-----------|-------------------------|-----------|------------------------|
|-7-------7-|-/10--9-(9)-5-(5)-7-(7)--|-5-------5-|-/10-9-(9)-7-(7)-9-(9)--|
|-x-------x-|---x--x-----x-----x------|-x-------x-|---x-x-----x-----x------|
|-5-------5-|--/8--7-(7)-3-(3)-5-(5)--|-3-------3-|--/8-7-(7)-5-(5)-7-(7)--|
|-----------|-------------------------|-----------|------------------------|


  D5
|-----------|-------------------------------|
|-----------|-------------------------------|
|-----------|-------------------------------|
|-0---------|--(0)--------------------------|
|-0---------|--(0)--------------------------|
|-0---------|--(0)--------------------------|
|
|-----------|-------------------------------|
|-----------|-------------------------------|
|-7-------7-|-/14--12-(12)-10-(10)-12-(12)--|
|-x-------x-|---x---x-------x-------x-------|
|-5-------5-|-/12--10-(10)--8--(8)-10-(10)--|
|-----------|-------------------------------|


  C5/G          G
                PM--------------------|
|-------------|--------------------------||
|-------------|--------------------------||
|--5----------|--------------------------||
|--5----------|-5--5---5---5---5--5-5-5--||
|--3----------|-2--2---2---2---2--2-2-2--||
|-------------|--------------------------||
|
|-------------|--------------------------||
|-------------|-----------13-(13)--------||
|-10-------10-|-9-10-(10)--x-------------||
|--x--------x-|-x--x------10-(10)--------||
|--8--------8-|-7--8--(8)----------------||
|-------------|--------------------------||


   Breakdown Chorus
    Bsus2
||------------------------------------------------------|
||o---------------------13----(13)----------------------|
||-----------10-(10)------------------10----------10----|
||--12--------------------------------------12----------|
||o-----------------------------------------------------|
||------------------------------------------------------|
|
||------------------------------------------------------|
||o-----------------------------------------------------|
||--10-10-10-10--10--10-10-10--10--10-10-10-10-10-10-10-|
||--10-10-10-10--10--10-10-10--10--10-10-10-10-10-10-10-|
||o--8--8--8--8---8---8--8--8---8---8--8--8--8--8--8--8-|
||---8--8--8--8---8---8--8--8---8---8--8--8--8--8--8--8-|


|------------------------------------------------------|
|---------------------13----(13)-----------------------|
|----------10-(10)------------------10----------10-----|
|-12--------------------------------------12-----------|
|------------------------------------------------------|
|------------------------------------------------------|
|
|------------------------------------------------------|
|------------------------------------------------------|
|-10-10-10-10--10--10-10-10--10--10-10-10-10-10-10-10--|
|-10-10-10-10--10--10-10-10--10--10-10-10-10-10-10-10--|
|--8--8--8--8---8---8--8--8---8---8--8--8--8--8--8--8--|
|--8--8--8--8---8---8--8--8---8---8--8--8--8--8--8--8--|


  Dm7
|-----------------------------------------------------|
|---------------------13----(13)----------------------|
|----------10-(10)------------------10----------10----|
|-12--------------------------------------12----------|
|-----------------------------------------------------|
|-----------------------------------------------------|
|
|-----------------------------------------------------|
|-----------------------------------------------------|
|-10-10-10-10--10--10-10-10--10--10-10-10-10-10-10-10-|
|-10-10-10-10--10--10-10-10--10--10-10-10-10-10-10-10-|
|--0--0--0--0---0---0--0--0---0---0--0--0--0--0--0--0-|
|--0--0--0--0---0---0--0--0---0---0--0--0--0--0--0--0-|


|------------------------------------------------------||
|---------------------13----(13)----------------------o||
|----------10-(10)------------------10----------10-----||
|-12--------------------------------------12-----------||
|-----------------------------------------------------o||
|------------------------------------------------------||
|
|------------------------------------------------------||
|-----------------------------------------------------o||
|-10-10-10-10--10--10-10-10--10--10-10-10-10-10-10-10--||
|-10-10-10-10--10--10-10-10--10--10-10-10-10-10-10-10--||
|--0--0--0--0---0---0--0--0---0---0--0--0--0--0--0--0-o||
|--0--0--0--0---0---0--0--0---0---0--0--0--0--0--0--0--||


    Bsus2
   3/4
||--------------------------------------|
||o-------------------------------------|
||--------------------------------------|
||---7h=8p=7-----7----------------------|
||o----------10----10--8h10--8--5--8h10-|
||--------------------------------------|
|
||--------------------------------------|
||o-------------------------------------|
||--10-10-10-10-10-10-10-10-10-10-10-10-|
||--10-10-10-10-10-10-10-10-10-10-10-10-|
||o--8--8--8--8--8--8--8--8--8--8--8--8-|
||---8--8--8--8--8--8--8--8--8--8--8--8-|


  Dm7
                                        4x
|---------------------------------------||
|--------------------------------------o||
|---------------------------------------||
|--7h=8p=7-----7------------------------||
|----------10----10--8h10--8--5--8h10--o||
|---------------------------------------||
|
|                                       4x
|---------------------------------------||
|--------------------------------------o||
|-10-10-10-10-10-10-10-10-10-10-10-10---||
|-10-10-10-10-10-10-10-10-10-10-10-10---||
|--0--0--0--0--0--0--0--0--0--0--0--0--o||
|--0--0--0--0--0--0--0--0--0--0--0--0---||


   Outro
    Bsus2
||--------------------------------------|
||o-------------------------------------|
||--------------------------------------|
||---7h=8p=7----------------------------|
||o-------------------------------------|
||--------------------------------------|
|
||--------------------------------------|
||o-------------------------------------|
||--10-10-10-10-10-10-10-10-10-10-10-10-|
||--10-10-10-10-10-10-10-10-10-10-10-10-|
||o--8--8--8--8--8--8--8--8--8--8--8--8-|
||---8--8--8--8--8--8--8--8--8--8--8--8-|


  Dm7
                                       8x
|--------------------------------------||
|-------------------------------------o||
|--------------------------------------||
|--7h=8p=7-----------7h=8p=7-----------||
|----------------------------10--8h10-o||
|--------------------------------------||
|
|                                      8x
|--------------------------------------||
|-------------------------------------o||
|-10-10-10-10-10-10-10-10-10-10-10-10--||
|-10-10-10-10-10-10-10-10-10-10-10-10--||
|--0--0--0--0--0--0--0--0--0--0--0--0-o||
|--0--0--0--0--0--0--0--0--0--0--0--0--||



***************************************************************************************
* Generated using Power Tab Editor by Brad Larsen - http://powertab.guitarnetwork.org *
***************************************************************************************
Comments