Atreyu - Aint Love Grand Chords & Tabs

 

Aint Love Grand Chords & Tabs

Atreyu Chords & Tabs

Version: 5 Type: Tab 0 ratings
1 star 2 stars 3 stars 4 stars 5 stars
comments

Aint Love Grand Tab

aint love grand
atreyu
tabbed by mattias


----------------------------------------------------------------|
----------------------------------------------------------------|
----------------------------------------------------------------|
-----9---9h10---9---9--12-10-9--------9---9h10---9---9--10-9----|
-0-0---0------0---0-----------------0---0------0---0---------12-|
----------------------------------------------------------------|

[ Tab from: http://www.guitartabs.cc/tabs/a/atreyu/aint_love_grand_tab_ver_5.html ]
--------------------------------|
--------------------------------|
--------------------------------|
-00-000-33-333-10-101010-88-888-|
-00-000-33-333-10-101010-88-888-|
-00-000-33-333-10-101010-88-888-|


---------------------------------------------|
---------------------------------------------|
---9--9-9--9--9-9--9--9-9--9--9-9------------|
---9--9-9--9--9-9--9--9-9--9--9-9--7h8p7-5h7-|
-77-77-7-77-77-7-00-00-0-00-00-0-------------|
-77-77-7-77-77-7-00-00-0-00-00-0-------------|

tiaS
Comments