Atreyu - Aint Love Grand Chords & Tabs

 

Aint Love Grand Chords & Tabs

Atreyu Chords & Tabs

Version: 2 Type: Tab 0 ratings
1 star 2 stars 3 stars 4 stars 5 stars
comments

Aint Love Grand Tab

This is an awesome song!!!!!

Tuning= (down a whole step then dropp the D to a C ) CGCFAD

Intro
-------------------------------------------------------------
-------------------------------------------------------------
-------9-9-10-9------9-12-10-9--------9-9-10-9------9-10-9-7-
--00---------------00-----------------00---------------00----
-------------------------------------------------------------
-------------------------------------------------------------
[ Tab from: http://www.guitartabs.cc/tabs/a/atreyu/aint_love_grand_tab_ver_2.html ]
Chorus(figure out the strumming yourself)
----------------------------
----------------------------
--------------5---3---------
-0-----3-----5---3----------
-0-----3-----3---1----------
-0-----3--------------------

Verse
figure out strumming
----------
---------- fill -2-2-3-0-
------5---
------3---
----------
-00-------

Pre Chorus
figure out strummong
---------------------
---------------------
-----------5-4-------
-0-------------------
-0-------------------
-0-------------------

Well thats pretty much it
for the interlude just make somthing up with the intro
Any comments, corrections, or questions email me at  
PurpleDinosaur9@hotmail.com
Have Fun!
Comments