Atreyu - Aint Love Grand Chords & Tabs

 

Aint Love Grand Chords & Tabs

Atreyu Chords & Tabs

Version: 1 Type: Tab 2 ratings
1 star 2 stars 3 stars 4 stars 5 stars
comments

Aint Love Grand Tab

   
DROP C TUNING! C-G-C-F-A-D
. = Palm Mute
* = Harmonic
Tribal drums intro, then:

INTRO/CHORUS
Guitar 1 (left channel) 6x
e|---------------------------------------------------------------------------|
B|---------------------------------------------------------------------------|
G|-----9-9h10-9-9-12-10-9-----9-9h10-9-9-10-9--------------------------------|
D|--0-0-0----0-0-----------0-0-0----0-0-------12-----------------------------|
A|---------------------------------------------------------------------------|
E|---------------------------------------------------------------------------|

Guitar 2 (right channel) comes in after guitar does intro 2x
do this 4x
e|---------------------------------------------------------------------------|
B|---------------------------------------------------------------------------|
G|--------------------5-5-5-5--3-3-3-3---------------------------------------|
D|--0-0-0-0--3-3-3-3--5-5-5-5--3-3-3-3---------------------------------------|
A|--0-0-0-0--3-3-3-3--3-3-3-3--1-1-1-1---------------------------------------|
E|--0-0-0-0--3-3-3-3---------------------------------------------------------|

VERSE
GUITAR 1
e|---------------------------------------------------------------------------|
B|---------------------------------------------------------------------------|
G|-------10-------10----10---------------------------------------------------|
D|-------10-------10----10-------10-------10----10---------------------------|
A|--8--8--8--8--8--8--8--8--0--0--0--0--0--0--0--0---------------------------|
E|--8--8--8--8--8--8--8--8--0--0--0--0--0--0--0--0---------------------------|
PM  .  .     .  .     .     .  .     .  .     .

e|---------------------------------------------------------------------------|
B|---------------------------------------------------------------------------|
G|-------10-------10----10---------------------------------------------------|
D|-------10-------10----10-------10-------10----10---------------------------|
A|--8--8--8--8--8--8--8--8--0--0--0--0--0--0--0--0---------------------------|
E|--8--8--8--8--8--8--8--8--0--0--0--0--0--0--0--0---------------------------|
PM  .  .     .  .     .     .  .     .  .     .

then do this quick fill
e|---------------------------------------------------------------------------|
B|---------------------------------------------------------------------------|
G|---------------------------------------------------------------------------|
D|---------------------------------------------------------------------------|
A|--8h10p8-7h8---------------------------------------------------------------|
E|---------------------------------------------------------------------------|
 
e|---------------------------------------------------------------------------|
B|---------------------------------------------------------------------------|
G|-------10-------10----10---------------------------------------------------|
D|-------10-------10----10-------10-------10----10---------------------------|
A|--8--8--8--8--8--8--8--8--0--0--0--0--0--0--0--0---------------------------|
E|--8--8--8--8--8--8--8--8--0--0--0--0--0--0--0--0---------------------------|
PM  .  .     .  .     .     .  .     .  .     .
e|---------------------------------------------------------------------------|
B|---------------------------------------------------------------------------|
G|-------10-------10----10---------------------------------------------------|
D|-------10-------10----10--5--5--5--5--5--5--5--5--5--5--5--5--5--5--5------|
A|--8--8--8--8--8--8--8--8--5--5--5--5--5--5--5--5--5--5--5--5--5--5--5------|
E|--8--8--8--8--8--8--8--8--5--5--5--5--5--5--5--5--5--5--5--5--5--5--5------|
PM  .  .     .  .     .      

VERSE
GUITAR 2
e|---------------------------------------------------------------------------|
B|--------------------------------6--------6-----6---------------------------|
G|-------10-------10----10--------5--------5-----5---------------------------|
D|--------8--------8-----8--------0--------0-----0---------------------------|
A|--8--8--8--8--8--8--8--8--0--0--0--0--0--0--0--0---------------------------|
E|--8--8--8--8--8--8--8--8--0--0--0--0--0--0--0--0---------------------------|
PM  .  .     .  .     .     .  .     .  .     .

e|---------------------------------------------------------------------------|
B|--------------------------------6--------6-----6---------------------------|
G|-------10-------10----10--------5--------5-----5---------------------------|
D|-------10-------10----10--------0--------0-----0---------------------------|
A|--8--8--8--8--8--8--8--8--0--0--0--0--0--0--0--0---------------------------|
E|--8--8--8--8--8--8--8--8--0--0--0--0--0--0--0--0---------------------------|
PM  .  .     .  .     .     .  .     .  .     .

then do this quick fill
e|---------------------------------------------------------------------------|
B|---------------------------------------------------------------------------|
G|---------------------------------------------------------------------------|
D|--7h8p7--5h7---------------------------------------------------------------|
A|---------------------------------------------------------------------------|
E|---------------------------------------------------------------------------|
 
e|---------------------------------------------------------------------------|
B|--------------------------------6--------6-----6---------------------------|
G|-------10-------10----10--------5--------5-----5---------------------------|
D|--------8--------8-----8--------0--------0-----0---------------------------|
A|--8--8--8--8--8--8--8--8--0--0--0--0--0--0--0--0---------------------------|
E|--8--8--8--8--8--8--8--8--0--0--0--0--0--0--0--0---------------------------|
PM  .  .     .  .     .     .  .     .  .     .
e|---------------------------------------------------------------------------|
B|---------------------------------------------------------------------------|
G|-------10-------10----10---------------------------------------------------|
D|--------8--------8-----8--5--5--5--5--5--5--5--5--5--5--5--5--5--5--5------|
A|--8--8--8--8--8--8--8--8--5--5--5--5--5--5--5--5--5--5--5--5--5--5--5------|
E|--8--8--8--8--8--8--8--8--5--5--5--5--5--5--5--5--5--5--5--5--5--5--5------|
PM  .  .     .  .     .      
[ Tab from: http://www.guitartabs.cc/tabs/a/atreyu/aint_love_grand_tab.html ]
PRE CHORUS
GUITAR 1
e|---------------------------------------------------------------------------|
B|---------------------------------------------------------------------------|
G|------------------------5/7-5-5-5/7-4-4-4-4--------------------------------|
D|------------------------x-x-x-x-x-x-x-x-x-x--------------------------------|
A|------------------------3/5-3-3-3/5-2-2-2-2--------------------------------|
E|--0-0-0---0-0-0---0-0-0----------------------------------------------------|
PM  . . .   . . .   . . .
e|---------------------------------------------------------------------------|
B|------7*------7*------7*---------------------------------------------------|
G|------------------------5/7-5-5-5/7-4-4-4-4--------------------------------|
D|------------------------x-x-x-x-x-x-x-x-x-x--------------------------------|
A|------------------------3/5-3-3-3/5-2-2-2-2--------------------------------|
E|--0-0-----0-0-----0-0------------------------------------------------------|
PM  . .     . .     . .
e|---------------------------------------------------------------------------|
B|---------------------------------------------------------------------------|
G|------------------------5/7-5-5-5/7-4-4-4-4--------------------------------|
D|------------------------x-x-x-x-x-x-x-x-x-x--------------------------------|
A|------------------------3/5-3-3-3/5-2-2-2-2--------------------------------|
E|--0-0-0---0-0-0---0-0-0----------------------------------------------------|
PM  . . .   . . .   . . .
e|---------------------------------------------------------------------------|
B|------7*------7*------7*---------------------------------------------------|
G|------------------------5/7-5-5-5/7-4-4-4-4--------------------------------|
D|------------------------x-x-x-x-x-x-x-x-x-x--------------------------------|
A|------------------------3/5-3-3-3/5-2-2-2-2--------------------------------|
E|--0-0-----0-0-----0-0------------------------------------------------------|
PM  . .     . .     . .

PRE CHORUS
GUITAR 2

e|---------------------------------------------------------------------------|
B|---------------------------------------------------------------------------|
G|---------------------------------------------------------------------------|
D|--------------------------------5--5--5--5--5--5--5--5--5--5--5--5--5--5---|
A|--------------------------------5--5--5--5--5--5--5--5--5--5--5--5--5--5---|
E|--0-0-0---0-0-0---0-0-0---0-0-0-5--5--5--5--5--5--5--5--5--5--5--5--5--5---|
PM  . . .   . . .   . . .   . . .
e|---------------------------------------------------------------------------|
B|---------------------------------------------------------------------------|
G|------5*------5*------5*---------------------------------------------------|
D|--------------------------------5--5--5--5--5--5--5--5--5--5--5--5--5--5---|
A|--------------------------------5--5--5--5--5--5--5--5--5--5--5--5--5--5---|
E|--0-0-----0-0-----0-0-----0-0-0-5--5--5--5--5--5--5--5--5--5--5--5--5--5---|
PM  . .     . .     . .     . . . 
e|---------------------------------------------------------------------------|
B|---------------------------------------------------------------------------|
G|---------------------------------------------------------------------------|
D|--------------------------------5--5--5--5--5--5--5--5--5--5--5--5--5--5---|
A|--------------------------------5--5--5--5--5--5--5--5--5--5--5--5--5--5---|
E|--0-0-0---0-0-0---0-0-0---0-0-0-5--5--5--5--5--5--5--5--5--5--5--5--5--5---|
PM  . . .   . . .   . . .   . . .
e|---------------------------------------------------------------------------|
B|---------------------------------------------------------------------------|
G|------5*------5*------5*---------------------------------------------------|
D|--------------------------------5--5--5--5--5--5--5--5--5--5--5--5--5--5---|
A|--------------------------------5--5--5--5--5--5--5--5--5--5--5--5--5--5---|
E|--0-0-----0-0-----0-0-----0-0-0-5--5--5--5--5--5--5--5--5--5--5--5--5--5---|
PM  . .     . .     . .  

Then INTRO/CHORUS
Then VERSE
Then Pre Chorus... again

BRIDGE
GUITAR 1
e|---------------------------------------------------------------------------|
B|---------------------------------------------------------------------------|
G|--------------------------5~-----------5~------------------5~--------5~----|
D|-0~-----------------------5~-----------5~--------0~--------5~--------5~----|
A|-0~-----------------------3~-----------2~--------0~--------3~--------2~----|
E|-0~----------------------------------------------0~------------------------|

e|---------------------------------------------------------------------------|
B|---------------------------------------------------------------------------|
G|--7----9--10---9---5----7----5-----7---10----9----7----9----7--------------|
D|--x----x---x---x---x----x----x-----x----x----x----x----x----x--------------|
A|--5----7---8---7---3----5----3-----5----8----7----5----7----5--------------|
E|---------------------------------------------------------------------------|

e|---------------------------------------------------------------------------|
B|---------------------------------------------------------------------------|
G|--9---14---12---10---12--10-----10---9---10---17---------------------------|
D|--x----x----x----x----x---x------x---x----x----x---------------------------|
A|--7---12---10----8---10---8------8---7----8---15---------------------------|
E|---------------------------------------------------------------------------|

BRIDGE 
GUITAR 2
e|---------------------------------------------------------------------------|
B|---------------------------------------------------------------------------|
G|--------------------------5~-----------5~------------------5~--------5~----|
D|-0~-----------------------5~-----------5~--------0~--------5~--------5~----|
A|-0~-----------------------3~-----------2~--------0~--------3~--------2~----|
E|-0~----------------------------------------------0~------------------------|

e|---------------------------------------------------------------------------|
B|---------------------------------------------------------------------------|
G|--------------------------5~-----------5~------------------5~--------5~----|
D|-0~-----------------------5~-----------5~--------0~--------5~--------5~----|
A|-0~-----------------------3~-----------2~--------0~--------3~--------2~----|
E|-0~----------------------------------------------0~------------------------|

BRIDGE part 2
GUITAR 1
e|------8--------------------------------------------------------------------|
B|----6---6---6--------------------------------------------------------------|
G|--7-------7----------------------------------------------------------------|
D|---------------------------------------------------------------------------|
A|---------------------------------------------------------------------------|
E|---------------------------------------------------------------------------|
Do this 8x

BRIDGE part 2
GUITAR 2
e|---------------------------------------------------------------------------|
B|---------------------------------------------------------------------------|
G|-10-10-10-10-10-10-10-10-10---10-10-10-10-10-10-10-10-10-------------------|
D|--8--8--8--8--8--8--8--8--8----0--0--0--0--0--0--0--0--0-------------------|
A|--8--8--8--8--8--8--8--8--8----0--0--0--0--0--0--0--0--0-------------------|
E|--8--8--8--8--8--8--8--8--8----0--0--0--0--0--0--0--0--0-------------------|
do this a bunch


OUTRO
GUITAR 1
e|---------------------------------------------------------------------------|
B|---------------------------------------------------------------------------|
G|---------------------------------------------------------------------------|
D|--7-8-7-5-7-5-3-5-3-0-3-5-----7-8-7-5-7-5-3-5-3-0-3-5----------------------|
A|---------------------------------------------------------------------------|
E|---------------------------------------------------------------------------|

e|---------------------------------------------------------------------------|
B|---------------------------------------------------------------------------|
G|---------------------------------------------------------------------------|
D|--7-8-7-5-7-5-3-5-3-0-3-5-----7-8-7-5-7-5-3-5-3-0-3-5----------------------|
A|---------------------------------------------------------------------------|
E|---------------------------------------------------------------------------|

e|---------------------------------------------------------------------------|
B|---------------------------------------------------------------------------|
G|---------------------------------------------------------------------------|
D|--7-8-7-5-7-5-3-5-3-0-3-5-----7-8-7-5-7-5-3-5-3-0-3-5----------------------|
A|---------------------------------------------------------------------------|
E|---------------------------------------------------------------------------|

e|---------------------------------------------------------------------------|
B|---------------------------------------------------------------------------|
G|---------------------------------------------------------------------------|
D|--7-8-7-5-7-5-3-5-3-0-3-5-----7-8-7-5-7-5-3-5-3-0-3-5----------------------|
A|---------------------------------------------------------------------------|
E|---------------------------------------------------------------------------|

REPEAT THIS UNTIL FADE OUT:
e|---------------------------------------------------------------------------|
B|---------------------------------------------------------------------------|
G|---------------------------------------------------------------------------|
D|--7h8p7-----7h8p7------7h8p7-----------------------------------------------|
A|------------------------------10p8h10--------------------------------------|
E|---------------------------------------------------------------------------|

OUTRO
GUITAR 2
Repeat BRIDGE part 2 Until Fade out w/ a Phaser/Flange Effect
Comments