Atreyu - Aint Love Grand Chords & Tabs

 

Aint Love Grand Chords & Tabs

Atreyu Chords & Tabs

Version: 1 Type: Bass Tab

Aint Love Grand Bass Tab

   
Band- Atreyu
Song- Ain't Love Grand

Tuning:  C  G  C  F

Any Atreyu song, E-mail me and I will tab it.

  Intro x4 (Come in after the guitar and drums)
|-------------------------------------------------------------------||
|-------------------------------------------------------------------||
|-------------------3-3-3-3--1-1-1-1--------------------------------||
|-0-0-0-0--3-3-3-3--------------------------------------------------||


  Verse
|-------------------------------------------------------------------||
|-------------------------------------------------------------------||
|-------------------------------------------------------------------||
|--8--8--8--8--8--8--8--8--0--0--0--0--0--0--0--0-------------------||
[ Tab from: http://www.guitartabs.cc/tabs/a/atreyu/aint_love_grand_btab.html ]
|-------------------------------------------------------------------||
|-------------------------------------------------------------------||
|-------------------------------------------------------------------||
|--8--8--8--8--8--8--8--8--0--0--0--0--0--0--0--0-------------------||
  Fill (quickly Listen to song and you will know)
|-------------------------------------------------------------------||
|-------------------------------------------------------------------||
|--8h10p8-7h8-------------------------------------------------------||
|-------------------------------------------------------------------||

|-------------------------------------------------------------------||
|-------------------------------------------------------------------||
|-------------------------------------------------------------------||
|--8--8--8--8--8--8--8--8--0--0--0--0--0--0--0--0-------------------||

|-------------------------------------------------------------------||
|-------------------------------------------------------------------||
|-------------------------------------------------------------------||
|--8--8--8--8--8--8--8--8--5--5--5--5--5--5--5--5--5--5--5--5--5--5-||

Pre Chorus x4
|-------------------------------------------------------------------||
|-------------------------------------------------------------------||
|----------------------3/5-3-3-3/5-2-2-2-2--------------------------||
|--0-0-0--0-0-0--0-0-0----------------------------------------------||

Then Intro/Chorus
Then Verse
Then Pre Chorus Again

Bridge
Listen to song for timing 
|----------------||
|----------------||
|-----3~--2~-----||
|--0~------------||


Bridge pt2 and Outro
|-------------------------------------------------------------------||
|-------------------------------------------------------------------||
|-------------------------------------------------------------------||
|--8--8--8--8--8--8--8--8--0--0--0--0--0--0--0--0-------------------||