Atreyu - A Vampires Lament Chords & Tabs

 

A Vampires Lament Chords & Tabs

Atreyu Chords & Tabs

Version: 4 Type: Tab 0 ratings
1 star 2 stars 3 stars 4 stars 5 stars
comments

A Vampires Lament Tab

a vampires lament
atreyu
suicide notes and butterfly kisses
tabed by mattias

this is how the solo really goes ive tried it many other ways but this is the only way 
sounds good to me


right before the solo (x4)
|----3-1-0h1p0----5-3---|
|---1------------3---3--|
|--2------------4-----4-|
|-3------------5--------|
|-----------------------|
|-----------------------|

|-3-1~---let ring----|
|-1-1----------------|
|-2-1----------------|
|-3-0--0-------------|
|------0-------------|
|------0-------------|

solo

[ Tab from: http://www.guitartabs.cc/tabs/a/atreyu/a_vampires_lament_tab_ver_4.html ]
|---------------------------------------------------------------------|
|---------------------------------------------------------------------|
|--------------------------------------------------3p0-3p0----3p0-3p0-|
|----3p0-3p0----3p0-3p0-------------------------555--------555--------|
|-555--------555--------333-7p3-7p3-333-7p0-7p0-----------------------|
|---------------------------------------------------------------------|

|-------------------------|
|-------------------------|
|-------------------------|
|-333-7p3-7p3-777-7p3-7p3-|
|-------------------------|
|-------------------------|

have fun                                                               tias
Comments