Atreyu - A Vampires Lament Chords & Tabs

 

A Vampires Lament Chords & Tabs

Atreyu Chords & Tabs

Version: 1 Type: Tab 0 ratings
1 star 2 stars 3 stars 4 stars 5 stars
comments

A Vampires Lament Tab

Atreyu - A Vampire's Lament
this is a great band that deserves much credit

Tabbed - Drew
e-mail - funeral_in_carpathia13@yahoo.com
tuning - Low to High - CGCFAD

intro
D||------------------------------|----------------------------------|
A||------------------------------|----------------------------------|
F||------------------------------|--2-2-2-2-3-3-3-3-5-5-5-5-3-3-3-3-|
C||------------------------------|----------------------------------|
G||------------------------------|----------------------------------|
C||--0-0-0--0-0-0--0-0-0--0-0-0--|----------------------------------|

could be right, could be wrong
D|---------------------------|------------------------|
A|---------------------------|------------------------|
F|----------------5---3---2--|--3---2---0--2---0------|
C|---------------------------|---------------------3--|
G|---------------------------|------------------------|
C|--0-0-0--0-0-0-------------|------------------------|


riff 1 - 2x
D|------------------------------|----------------------------------|
A|------------------------------|----------------------------------|
F|------------------------------|--2-2-2-2-3-3-3-3-2-2-2-2-0-0-0-0-|
C|------------------------------|----------------------------------|
G|------------------------------|----------------------------------|
C|--0-0-0--0-0-0--0-0-0--0-0-0--|----------------------------------|

D|------------------------------|----------------------------------|
A|------------------------------|------------------4-4-4-4-3-3-3-3-|
F|------------------------------|--2-2-2-2-3-3-3-3-----------------|
C|------------------------------|----------------------------------|
G|------------------------------|----------------------------------|
C|--0-0-0--0-0-0--0-0-0--0-0-0--|----------------------------------|


riff 2 - 1x
D|------------------------------|----------------------------------|
A|------------------------------|--1-1-1-1-3-3-3-3-1-1-1-1---------|
F|------------------------------|--2-2-2-2-3-3-3-3-2-2-2-2-3-3-3-3-|
C|------------------------------|--------------------------5-5-5-5-|
G|------------------------------|----------------------------------|
C|--0-0-0--0-0-0--0-0-0--0-0-0--|----------------------------------|

------------------------------|------------------3-3-3-3-1-1-1-1-|
------------------------------|--1-1-1-1-3-3-3-3-4-4-4-4-3-3-3-3-|
------------------------------|--2-2-2-2-3-3-3-3-----------------|
------------------------------|----------------------------------|
------------------------------|----------------------------------|
--0-0-0--0-0-0--0-0-0--0-0-0--|----------------------------------|

------------------------------|----------------------------------|
------------------------------|--1-1-1-1-3-3-3-3-1-1-1-1---------|
------------------------------|--2-2-2-2-3-3-3-3-2-2-2-2-3-3-3-3-|
------------------------------|--------------------------5-5-5-5-|
------------------------------|----------------------------------|
--0-0-0--0-0-0--0-0-0--0-0-0--|----------------------------------|

------------------------------|------------3----1----|
------------------------------|--1----3----4----3----|
------------------------------|--2----3--------------|
------------------------------|----------------------|
------------------------------|----------------------|
--0-0-0--0-0-0--0-0-0--0-0-0--|----------------------|

------------------------------|-----------------------|
------------------------------|-----------------------|
------------------------------|--9----10----9----7----|
--0-0-0--0-0-0--0-0-0--0-0-0--|--7----8-----7----5----|
--0-0-0--0-0-0--0-0-0--0-0-0--|--7----8-----7----5----|
--0-0-0--0-0-0--0-0-0--0-0-0--|--7----8-----7----5----|

------------------------------|-----------------------|
------------------------------|-----------------------|
------------------------------|--9----10----8----7----|
--0-0-0--0-0-0--0-0-0--0-0-0--|--7----8-----8----7----|
--0-0-0--0-0-0--0-0-0--0-0-0--|--7----8-----6----5----|
--0-0-0--0-0-0--0-0-0--0-0-0--|--7----8-----8----7----|

[ Tab from: http://www.guitartabs.cc/tabs/a/atreyu/a_vampires_lament_tab.html ]
Riff 3 - x4
|-------------------|--------------------|-------------------|----------|
|-------------------|--------------------|-------------------|----------|
|-------------------|--------------------|-------------------|----------|
|--0------0----2----|------2----3--------|--3----5-----5h-7--|-3-5-5h-7-|
|--0------0----2----|------2----3--------|--3----5-----5h-7--|-3-5-5h-7-|
|--0------0----2----|------2----3--------|--3----5-----5h-7--|-3-5-5h-7-|


Riff 4 - x2
------------------------|------------------------|
------------------------|------------------------|
--7--7--7----7--7----7--|----7----7--7--7--7--7--|
--7--7--7----7--7----7--|----7----7--7--7--7--7--|
--5--5--5----5--5----5--|----5----5--5--5--5--5--|
--0--0--0----0--0----0--|----0----0--0--0--0--0--|

------------------------|------------------------|
------------------------|------------------------|
--5--5--5----5--5----5--|-----5----5--5--5--5----|
--5--5--5----5--5----5--|-----5----5--5--5--5----|
--7--7--7----7--7----7--|-----7----7--7--7--7----|
--5--5--5----5--5----5--|-----5----5--5--5--5----|


Riff 5 - x2
------------------------|------------------------|
------------------------|------------------------|
--9--9--9----9--9----9--|----9----9--9--9--9--9--|
--7--7--7----7--7----7--|----7----7--7--7--7--7--|
--7--7--7----7--7----7--|----7----7--7--7--7--7--|
--7--7--7----7--7----7--|----7----7--7--7--7--7--|

------------------------|------------------------|
------------------------|------------------------|
--7--7--7----7--7----7--|----7----7--7--7--7-----|
--5--5--5----5--5----5--|----5----5--5--5--5-----|
--5--5--5----5--5----5--|----5----5--5--5--5-----|
--5--5--5----5--5----5--|----5----5--5--5--5-----|

Pick verse - x4
|--------------------------|--------------------------|-------------|
|-----3--4--3--3h-4--3-----|-----6--8--6--6h-8--6-----|-------------|
|--5--------------------5--|--7--------------------7--|--10----10---|
|--------------------------|--------------------------|--10----10---|
|--------------------------|--------------------------|---8-----8---|
|--------------------------|--------------------------|-------------|

HOLD
----------|
----------|
--10------|
--10------|
---8------|
----------|

Best part of the song
|--------------------------------|
|--------------------------------|
|--------------------------------|
|-----------3-----3--------------|
|--5--5--5-----5-----5--5--5--5--|
|--------------------------------|

-----------------------------|-----------------------------|
-----------------------------|-----------------------------|
-----------------------------|-----------------------------|
--3-----3--------------2-----|--2--------------2-----2-----|
-----5-----5--3--3--3-----3--|-----3--3--3--3-----3-----3--|
-----------------------------|-----------------------------|

--------------------------------|-----------------------------|
--------------------------------|-----------------------------|
-----------3-----3--------------|--3-----3--------------2-----|
--5--5--5-----5-----5--5--5--5--|-----5-----5--3--3--3-----3--|
--------------------------------|-----------------------------|
--------------------------------|-----------------------------|

-----------------------------|
-----------------------------|
--2--------------2-----2-----|
-----3--3--3--3-----3-----3--|
-----------------------------|
-----------------------------|

Guitar 2
|--------------------------------|
|--------------------------------|
|-----------2-----2--------------|
|--3--3--3--3--3--3--3--3--3--3--|
|--5--5--5-----5-----5--5--5--5--|
|--------------------------------|

-----------------------------|-----------------------------|
-----------------------------|-----------------------------|
--2-----2--------------0-----|--0--------------0-----0-----|
--3--3--3--3--2--2--2--2--2--|--2--2--2--2--2--2--2--2--2--|
-----5-----5--3--3--3-----3--|-----3--3--3--3-----3-----3--|
-----------------------------|-----------------------------|



--------------------------------|-----------------------------|
-----------3-----3--------------|--3-----3--------------1-----|
--3--3--3--3--3--3--3--3--3--3--|--3--3--3--3--2--2--2--2--2--|
--5--5--5-----5-----5--5--5--5--|-----5-----5--3--3--3-----3--|
--------------------------------|-----------------------------|
--------------------------------|-----------------------------|



-----------------------------|
--1--------------1-----1-----|
--2--2--2--2--2--2--2--2--2--|
-----3--3--3--3-----3-----3--|
-----------------------------|
-----------------------------|
Comments