Atreyu - A Song For The Optemists Chords & Tabs

 

A Song For The Optemists Chords & Tabs

Atreyu Chords & Tabs

Version: 1 Type: Bass Tab 0 ratings
1 star 2 stars 3 stars 4 stars 5 stars
comments

A Song For The Optemists Bass Tab

   
Tuning B,E,A,D

D[---------------------]
A[---------------------]
E[-----4------6--4--3--]
B[-1-------1-----------]

  Verse 1:
D[--------------------------------------------------]
A[--------------------------------------------------]
E[-------------------------222222222222444444444444-]
B[-111111111111444444444444-------------------------]

  Verse 2: "i'll be honest..." (the second time)

                                          After the fourth time, strum
					each note a bunch of times.
D[--------------------------------]   [--------]
A[-------------------------4---4--]   [--------]
E[-----1-3-1---1-3-6-----1---1----]   [--------]
B[-1------------------------------]   [-2---4--]

  Verse 3
[ Tab from: http://www.guitartabs.cc/tabs/a/atreyu/a_song_for_the_optemists_btab.html ]
D[-----------------------------------------------------------]
A[-----------------------------------------------------------]
E[-------------------------------4--4-4-4-4-4-4--------------]
B[-1-1-1-1-1-1-1-1-1-1-1-1-1-1-1---------------------4-4-4-3-]

  Verse 4

D[-----------------------------------------------------------][---]
A[-----------------------------------------------------------][---]
E[--------3-3--3--------0-0-0-0-0-0-0--------2-2--2--4-4-4-4-][---]
B[-1-1--1--------1-1--1---------------1-1--1-----------------][-1~]

  Verse 5

D[-----------------------------------------------------------------]
A[-----------------------------------------------------------------]
E[---------------------------------2-2-2-2-2-2-2-4-4-4-4-4-4-4-4-4-]
B[-1-1-1-1-1-1-1-4-4-4-4-4-4-4-4-4---------------------------------]

D[------------------------------------------]
A[-1---------3---------4--------------------]
E[---0-0-0-0---0-0-0-0---0-0-0-0--0---------]
B[----------------------------------2-4-2-1-]

D[--------------------------------------]
A[-1---------3---------4----------------]
E[---0-0-0-0---0-0-0-0---0-0-0-0--------]
B[--------------------------------4-2-1-]

The songs ends the same way you play the second verse
Comments