Atreyu - A Letter To Someone Like You Chords & Tabs

 

A Letter To Someone Like You Chords & Tabs

Atreyu Chords & Tabs

Version: 2 Type: Tab 0 ratings
1 star 2 stars 3 stars 4 stars 5 stars
comments

A Letter To Someone Like You Tab

   
Atreyu
"A Letter To Someone Like You"
Tabbed by J.S. Robinson
Tuning (C-G-C-F-A-D)
Guitar 1: Travis (Rhythm)
Guitar 2: Dan (Lead)
x = muted string
s = slide
h = hammer on
tp = tremolo pick
... (p.m.) = palm mute

Verse (Guitars 1 & 2)
D --------------------------------------------------------------------------|
A --------------------------------------------------------------------------|
F --------------------------5-4-----------------------3---------------------|
C --------------------------x-x-----------------------2---------------------|
G ---0-0-3-2-0-0-5-4-0-0----3-2---0-0-3-2-0-0-4-5-0-0-1---------------------|
C ---0-0-3-2-0-0-5-4-0-0----------0-0-3-2-0-0-4-5-0-0-----------------------|
 pm  . .     . .     . .          . .     . .     . .

Little bit before pre chorus
D --------------------------------------------------------------------------|
A --------------------------------------------------------------------------|
F --------------------------------------------------------------------------|
C ---0-0-0-0----------------------------------------------------------------|
G ---0-0-0-0----------------------------------------------------------------|
C ---0-0-0-0----------------------------------------------------------------|
pm   . . . .
============================================================================

Pre Chorus (Guitar 1)
D --------------------------------------------------------------------------|
A --------------------------------------------------------------------------|
F --------------------------------------------------------------------------|
C ---0-0-0-0-0-0-0-0-4-4-4-4-4-4-4-4-5-5-5-5-5-5-5-5-7-7-7-7-7-7-7-7--------|
G ---0-0-0-0-0-0-0-0-4-4-4-4-4-4-4-4-5-5-5-5-5-5-5-5-7-7-7-7-7-7-7-7--------|
C ---0-0-0-0-0-0-0-0-4-4-4-4-4-4-4-4-5-5-5-5-5-5-5-5-7-7-7-7-7-7-7-7--------|

Pre Chorus (Guitar 2)
D --------------------------------------------------------------------------|
A --------------------------------------------------------------------------|
F --------------------------------------------------------------------------|
C -----------------------------------------------------------------7--------|
G -----9-7-9-10-9-7h9--9-7-9-10-9-7h9----9-7-9-10-9-7h9---9-7-9--9---7h9----|
C ---0----------------4----------------5----------------7-------------------|

============================================================================

Chorus (Guitar1)
D --------------------------------------------------------------------------|
A --------------------------------------------------------------------------|
F --------------------------------------------------------------------------|
C ---0----0-----5----5-----7----7-------------------------------------------|
G ---0----0-----5----5-----7----7-------------------------------------------|
C ---0----0-----5----5-----7----7-------------------------------------------|
[ Tab from: http://www.guitartabs.cc/tabs/a/atreyu/a_letter_to_someone_like_you_tab_ver_2.html ]
Chorus (Guitar 2)
D --------------------------------------------------------------------------|
A --------------------------------------------------------------------------|
F ---7-6-7---7-6-7---7-6-7---7-9--9-11-12-12-11-9-9-7-----------------------|
C ---x-x-x----x-x-x---x-x-x---x--x--x-x--x----x-x-x--x--x-------------------|
G ---5s4s5---5s4s5---5s4s5---5s7--7s9s10--10s9s7--7s5-----------------------|
C --------------------------------------------------------------------------|

============================================================================

Bridge (Guitar 1 clean; just strum)
D --------------------------------------------------------------------------|
A --------------------------------------------------------------------------|
F ---6-6-6-6-6-6-6-6-4-4-4-4-4-4-4-4----------------------------------------|
C ---6-6-6-6-6-6-6-6-4-4-4-4-4-4-4-4--4-4-4-4-4-4-4-4-3-3-3-3-6-6-6-6-------|
G ---4-4-4-4-4-4-4-4-2-2-2-2-2-2-2-2--4-4-4-4-4-4-4-4-3-3-3-3-6-6-6-6-------|
C -----------------------------------------4-4-4-4-4-4-4-4-3-3-3-3-6-6-6-6--|

Bridge (Guitar 2)
D --------------------------------------------------------------------------|
A -------------------------------------14----14---14--------14---14-14------|
F ---6-------------6--5--8----------13------13--13--------13---13-13--------|
C ---x-(Let ring)---x--x--x------11--------------------11-------------------|
G ---4-------------4--3--6--------------------------------------------------|
C --------------------------------------------------------------------------|

============================================================================
Breakdown (Guitar 1; slide 5-7-7 down to 1st fret and play intro slow)
D --------------------------------------------------------------------------|
A --------------------------------------------------------------------------|
F ---7-------------------------------5--4-----------------------------------|
C ---7-------------------------------x--x-----------------------------------|
G ---5----0--0--3--2--0--0--5--4-----3--2-----------------------------------|
C --------0--0--3--2--0--0--5--4--------------------------------------------|

D --------------------------------------------------------------------------|
A --------------------------------------------------------------------------|
F --------------------------------------------------------------------------|
C ---3tp--2tp--0tp--5tp--4tp--7tp--6tp--------------------------------------|
G --------------------------------------------------------------------------|
C --------------------------------------------------------------------------|

Breakdown (Guitar 2; tremolo pick)
D --------------------------------------------------------------------------|
A --------------------------------------------------------------------------|
F ---10tp---9tp--7tp--12tp--11tp--14tp--13tp--------------------------------|
C --------------------------------------------------------------------------|
G --------------------------------------------------------------------------|
C --------------------------------------------------------------------------|
Comments