Atreyu - A Letter To Someone Like You Chords & Tabs

 

A Letter To Someone Like You Chords & Tabs

Atreyu Chords & Tabs

Version: 1 Type: Tab 0 ratings
1 star 2 stars 3 stars 4 stars 5 stars
comments

A Letter To Someone Like You Tab

Artist:Atreyu
Song: A Letter To Someone Like You
Album:Fracture In the Faηade Of Your Porcelain Beauty

Tabbed by: Ken Brazina
Email: Clamshvefelings@aol.com

Tuning: Drop C

Palm Mute  #

Here's some Atreyu from back in the day when the didn't wear make up
Or be so obsessed with demons, vampires, and other shit

Guitar 1
D|---------------------------------------------------------------------------|
A|---------------------------------------------------------------------------|
F|---------------------------------5\4---------------------------------4-----|
C|---------3-2---------5-4---------x\x---------2-3---------5-4—--------3-----|(X4)
G|--0-0-0--3-2—-0-0-0--5-4—-0-0-0—-3\2—-0-0-0—-2-3—-0-0-0—-5-4—-0-0-0--2-----|
C|--0-0-0—-3-2—-0-0-0--5-4—-0-0-0-------0-0-0—-2-3—-0-0-0—-5-4--0-0-0--------|
    # # #       # # #       # # #       # # #       # # #       # # #

Guitar 2
D|----------------------------------------3-3-3-2-2-2------------------------|
A|--------------------------3-3-3-2-2-2-2------------------------------------|
F|--2-2-2-5-5-5-4-4-4-2-2-2--------------------------------------------------|
C|---------------------------------------------------------------------------|(X4)
G|---------------------------------------------------------------------------|
C|---------------------------------------------------------------------------|

Guitars 1&2
D|-------|
A|-------|
F|-------|
C|--0-0--|
G|--0-0--|
C|--0-0--|
    # #

Guitar 1&2
D|---------------------------------------------------------------|
A|---------------------------------------------------------------|
F|---------------------------5\4---------------------------4-----|
C|-------3-2-------5-4-------x\x-------2-3-------5-4—------3-----|(X3)
G|--0-0--3-2—-0-0--5-4—-0-0—-3\2—-0-0—-2-3—-0-0—-5-4—-0-0--2-----|
C|--0-0—-3-2—-0-0--5-4—-0-0-------0-0—-2-3—-0-0—-5-4--0-0--------|
    # #       # #       # #       # #       # #       # #

Guitars 1&2
D|------------------------------------------------------------------|
A|------------------------------------------------------------------|
F|---------------------------5\4------------------------------------|
C|-------3-2-------5-4-------x\x-------2-3-----5-5-5-5-5-5-5-5------|(X1)
G|--0-0--3-2—-0-0--5-4—-0-0—-3\2—-0-0—-2-3—-0—-5-5-5-5-5-5-5-5------|
C|--0-0—-3-2—-0-0--5-4—-0-0-------0-0—-2-3—-0—-5-5-5-5-5-5-5-5------|
    # #       # #       # #       # #          # # # # # # # #

Guitar 1
D|----------------------------------------------------------------------------------|
A|----------------------------------------------------------------------------------|
F|----------------------------------------------------------------------------------|
C|------------------------------------------------------------------------7---------|(X2)
G|----9-7-9-10-9-7h9p7----5-9-7-9-10-9-7h9p7---5-9-7-9-10-9-7h9p7---9-7-9---9-7h9p7-|
C|--0-------------------4--------------------5--------------------7-----------------|

Guitar 2
D|-------------|
A|-------------|
F|-------------|
C|--0-—4--5--7-|(X2)
G|--0--4--5--7-|
C|--0—-4—-5—-7-|

Guitar 1
D|--------------------------------------------|
A|--------------------------------------------|
F|--7-6-7---7-6-7-—7\9—-7-6-7-9--10--9\10—-9--|
C|--x-x-x---x-x-x--x-x—-x-x-x-x--x---x\x—--x--|
G|--5-4-5—--5-4-5—-5\7—-5-4-5-7--9---7\9---7--|
C|--------------------------------------------|

Guitar 2
D|--------------|
A|--------------|
F|--------------|
C|--0--0--5—-7--|
G|--0--0--5—-7--|
C|--0—-0—-5—-7--|

Guitar 1&2
D|---------------------------------------------------------------------------|
A|---------------------------------------------------------------------------|
F|---------------------------------5\4---------------------------------4-----|
C|---------3-2---------5-4---------x\x---------2-3---------5-4—--------3-----|(X2)
G|--0-0-0--3-2—-0-0-0--5-4—-0-0-0—-3\2—-0-0-0—-2-3—-0-0-0—-5-4—-0-0-0--2-----|
C|--0-0-0—-3-2—-0-0-0--5-4—-0-0-0-------0-0-0—-2-3—-0-0-0—-5-4--0-0-0--------|
    # # #       # # #       # # #       # # #       # # #       # # #
[ Tab from: http://www.guitartabs.cc/tabs/a/atreyu/a_letter_to_someone_like_you_tab.html ]
Guitar 1&2
D|---------------------------------------------------------------|
A|---------------------------------------------------------------|
F|---------------------------5\4---------------------------4-----|
C|-------3-2-------5-4-------x\x-------2-3-------5-4—------3-----|(X3)
G|--0-0--3-2—-0-0--5-4—-0-0—-3\2—-0-0—-2-3—-0-0—-5-4—-0-0--2-----|
C|--0-0—-3-2—-0-0--5-4—-0-0-------0-0—-2-3—-0-0—-5-4--0-0--------|
    # #       # #       # #       # #       # #       # #

Guitars 1&2
D|------------------------------------------------------------------|
A|------------------------------------------------------------------|
F|---------------------------5\4------------------------------------|
C|-------3-2-------5-4-------x\x-------2-3-----5-5-5-5-5-5-5-5------|(X1)
G|--0-0--3-2—-0-0--5-4—-0-0—-3\2—-0-0—-2-3—-0—-5-5-5-5-5-5-5-5------|
C|--0-0—-3-2—-0-0--5-4—-0-0-------0-0—-2-3—-0—-5-5-5-5-5-5-5-5------|
    # #       # #       # #       # #          # # # # # # # #

Guitar 1
D|----------------------------------------------------------------------------------|
A|----------------------------------------------------------------------------------|
F|----------------------------------------------------------------------------------|
C|------------------------------------------------------------------------7---------|(X2)
G|----9-7-9-10-9-7h9p7----5-9-7-9-10-9-7h9p7---5-9-7-9-10-9-7h9p7---9-7-9---9-7h9p7-|
C|--0-------------------4--------------------5--------------------7-----------------|

Guitar 2
D|-------------|
A|-------------|
F|-------------|
C|--0-—4--5--7-|(X2)
G|--0--4--5--7-|
C|--0—-4—-5—-7-|

Guitar 1
D|-------------------------|
A|-------------------------|
F|-------------------------|
C|-------------------------|
G|--5--5\7—-5--4—5—5\7—-5--|
C|-------------------------|

Guitar 1
D|-------5-------5-----------5---------5----------5-------5----------5-------5-----|
A|---------------------------------------------------------------------------------|
F|----7-----7-------7-----7------7--------7----7-----7-------7----7-----7-------7--|
C|--0----------0-------4------------4--------5----------5-------4----------5-------|(X2)
G|---------------------------------------------------------------------------------|
C|---------------------------------------------------------------------------------|

Guitar 1&2
D|--------|
A|--------|
F|--------|
C|--0-----|
G|--0-----|
C|--0—9\0-|
    #

Guitar 1&2
D|--------------------------|
A|--------------------------|
F|---------------------5\4--|
C|-----3-2-----5-4-----x\x--|(X4)
G|--0-—3-2—-0--5-4—-0—-3\2—-|
C|--0—-3-2—-0--5-4—-0-------|

Guitar 1
D|-----------------|
A|-----------------|
F|-----------------|
C|--4-5-------5-4--|
G|--4-5-------5-4--|
C|--4-5-------5-4--|
    
Guitar 2
D|----------------------|
A|----------------------|
F|----------------------|
C|-------3-2-------5-4--|
G|-------3-2-------3-2--|
C|-------3-2------------|

Guitar 1
D|----------------------------------------3-3-3-2-2-2------------------------|
A|--------------------------3-3-3-2-2-2-2------------------------------------|
F|--2-2-2-5-5-5-4-4-4-2-2-2--------------------------------------------------|
C|---------------------------------------------------------------------------|(X4)
G|---------------------------------------------------------------------------|
C|---------------------------------------------------------------------------|

Guitar 2
D|---------------------------------------------------------------------------|
A|-----------------------------------------8-8-8-7-7-7-----------------------|
F|-----------------------------7-7-7-6-6-6-----------------------------------|
C|--7-7-7-10-10-10-9-9-9-7-7-7-----------------------------------------------|(X4)
G|---------------------------------------------------------------------------|
C|---------------------------------------------------------------------------|

Guitar 1
D|---------------------------------------------------------------------------|
A|--6-6-6-5-5-5-4-4-4-3-3-3--------------------------------------------------|
F|--------------------------5-5-5-4-4-4-3-3-3-2-2-2-2------------------------|
C|---------------------------------------------------------------------------|
G|---------------------------------------------------------------0---0-0-----|
C|---------------------------------------------------------------0---0-0-----|

Guitar 2
D|---------------------------------------------------------------------------|
A|--10-10-10-9-9-9-8-8-8-7-7-7-----------------------------------------------|
F|------------------------------10-10-10-9-9-9-8-8-8-7-7-7-------------------|
C|---------------------------------------------------------------------------|
G|---------------------------------------------------------------0---0-0-----|
C|---------------------------------------------------------------0---0-0-----|
Comments