Atreyu - A Letter To Someone Like You Chords & Tabs

 

A Letter To Someone Like You Chords & Tabs

Atreyu Chords & Tabs

Version: 1 Type: Bass Tab

A Letter To Someone Like You Bass Tab

Band- Atreyu
Song- A Letter To Someone Like You

Tuning: CGCF


Intro/Verse
F-----------------------------------------|
C-----------------------------------------|
G---------------22------------------------|
C-00032-00054-00--------------------------|

[ Tab from: http://www.guitartabs.cc/tabs/a/atreyu/a_letter_to_someone_like_you_btab.html ]
Chorus
F-----------------------------------------|
C-----------------------------------------|
G-22222222666666667777777799999999--------|
C-----------------------------------------|


2nd chorus part
F-------------------------------------------|
C-------------------------------------------|
G-222222222222222266666666667777777777------|
C-------------------------------------------|


Slow End Part
F------------------------|
C------------------------|
G-------------32---------|
C-0032-0054-00-----------|