Atomship - Mothra Chords & Tabs

 

Mothra Chords & Tabs

Atomship Chords & Tabs

Version: 1 Type: Tab 0 ratings
1 star 2 stars 3 stars 4 stars 5 stars
comments

Mothra Tab

   
Atomship - Mothra
Tabbed By: MuDKoRn69
Email: MuDKoRn69@aol.com

Tuning: Standard (E A D G B E)



Finally I figured out a decent tab for this kick ass song. 
Tune the g string down just a little to make the beginning 
sound right. Hopefully I will figure out the exact tunings 
sometime in the future. Email me with any questions.


Intro with delay and some weird effects
E|--------------------------------------------------------------||
B|--------------------------------------------------------------||
G|----------13---12------------13----10----------13-----8-------||
D|---10-----------------10-----------------10-------------------||
A|--------------------------------------------------------------||
E|--------------------------------------------------------------||



"mothra versus the world, lets play"
E|----------------------------------------------------------------||
B|----------------------------------------------------------------||
G|----13-12-------13-10-------13-8-------13-12--------------------||
D|-10---------10----------10---------10---------------------------||
A|----------------------------------------------------------------||
E|----------------------------------------------------------------||



E|---------------------------------------------------||
B|---------------------------------------------------||
G|-----17-12--------15-10---------13-8---------13-12-||
D|-10----------10------------10-----------10---------||
A|---------------------------------------------------||
E|---------------------------------------------------||
[ Tab from: http://www.guitartabs.cc/tabs/a/atomship/mothra_tab.html ]
LETS PLAY!! (heavy distortion)
E|------------------------------------------------||
B|------------------------------------------------||
G|------------------------------------------------||
D|--3-3---4---2---3-3-000----------------------------------||
A|--3-3---4---2---3-3-000----------------------------------||
E|--1-1---2---0---1-1-000----------------------------------||
                      pm.
Verse
E|------------||
B|------------||
G|------------||
D|------------||
A|--0---------||
E|--0---------||x8

Interlude
E|------------------------------------------------||
B|------------------------------------------------||x3 then bend 
G|------555----------555-66-44--------------------||the last note 
D|------------------------------------------------||the last time
A|------------333---------------------------------||Then play again
E|------------------------------------------------||



E|------------------------------------------------||
B|------------------------------------------------||x7
G|------------------------------------------------||
D|--3-3-3--0-0-0--3-3-3--4-4--2-2--3-3-3----------||
A|--3-3-3--0-0-0--3-3-3--4-4--2-2--3-3-3----------||
E|--1-1-1--0-0-0--1-1-1--2-2--0-0--1-1-1----------||
 pm . . .  . . .  . . .  . .  . .  . . .

MOTHRA!
E|------------------------------------------------||
B|------------------------------------------------||
G|------------------------------------------------||
D|--3-3---4---2---3-3-000-------------------------||
A|--3-3---4---2---3-3-000-------------------------||
E|--1-1---2---0---1-1-000-------------------------||
                      pm.
then you play the intro riff again and the heavy part again.  
Then the palm muted heavy part and then the intro riff again and 
thats it.
Comments