Atom And His Package - Hats Off To Halford Chords & Tabs

 

Hats Off To Halford Chords & Tabs

Atom And His Package Chords & Tabs

Version: 1 Type: Bass Tab 0 ratings
1 star 2 stars 3 stars 4 stars 5 stars
comments

Hats Off To Halford Bass Tab

Beginning / Ending
G|--------------------------
D|-------------------------
A|-00-----------55---------
E|------00-22--------------

Verse
G|-------------------------
D|-------------------------
A|-0-------5---------------
E|----0-2------------------
[ Tab from: http://www.guitartabs.cc/tabs/a/atom_and_his_package/hats_off_to_halford_btab.html ]
Chorus
G|-------------------------
D|-------------------------
A|-0-0---------------5-----
E|-------0-0--2-2----------

Bridge
G|-------------------------
D|-------------------------
A|-00-55-00----------------
E|-----------00------------

order:

introx 2
verses 4
chorus x 1
verses 4
bridge x 4
ends 4
Comments