Atmosphere - Always Coming Back Home To You Chords & Tabs

 

Always Coming Back Home To You Chords & Tabs

Atmosphere Chords & Tabs

Version: 2 Type: Tab 0 ratings
1 star 2 stars 3 stars 4 stars 5 stars
comments

Always Coming Back Home To You Tab

   
-------------------------------------------------------------------------------
	     Always Coming Back Home To You - Atmosphere
-------------------------------------------------------------------------------
Tabbed by: Emmanuel, figured out by Geoff
Email:

Tuning: Standard
[ Tab from: http://www.guitartabs.cc/tabs/a/atmosphere/always_coming_back_home_to_you_tab_ver_2.html ]
e|--------------------------------------------------------------------------|
B|------5h6p5--------5--------3-------5------------6--------6---------------|
G|---7---------7----5-------3-------5--------7--------7---------------------|
D|------------------------3-------5--------7----7--------7------------------|
A|-5--------------3-----1-------3--------5----------------------------------|
E|--------------------------------------------------------------------------|

e|---------------------------------------------R----------------------------|
B|------5h6p5--------5--------3-------5---6-----E---------------------------|
G|---7---------7----5-------3-------5-----7------P--------------------------|
D|------------------------3-------5-------7-------E-------------------------|
A|-5--------------3-----1-------3---------5--------A------------------------|
E|--------------------------------------------------T-----------------------|



| /  slide up
| \  slide down
| h  hammer-on
| p  pull-off
| ~  vibrato
| +  harmonic
| x  Mute note
===============================================================================
Comments