Atlantique - Les Eaux De Mars Chords & Tabs

 

Les Eaux De Mars Chords & Tabs

Atlantique Chords & Tabs

Version: 1 Type: Tab 0 ratings
1 star 2 stars 3 stars 4 stars 5 stars
comments

Les Eaux De Mars Tab

   
Les Eaux De Mars - Atlantique                       [Rhythm Guitar]
(Aguas De Marco - A.-C. Jobim)

Originally, written by Antonio Carlos Jobim "Les Eaux De Mars"
was a major one-hit-wonder in the mid 90's in France by Atlantique,
who covered the Georges Moustaki version.



     C7/Bb                                                                 
E||-----------------------|-----------------------|-----------------------|
B||-------1----------1----|-------1----------1----|-------1----------1----|
G||-------0----------0----|-------0----------0----|-------0----------0----|
D||-------2----------2----|-------2----------2----|-------2----------2----|
A||--1-------1--1---------|--1-------1--1---------|--1-------1--1---------|
E||-----------------------|-----------------------|-----------------------|


                          C7           C7                 
-----------------------|------------|--------------------|
-------1----------1----|-------1----|-----------1--------|
-------0----------0----|-------3----|-----------3--------|
-------2----------2----|-------2----|-----------2--------|
--1-------1--1---------|--3---------|--3-----------------|
-----------------------|------------|--------------------|


  D7/A                    Fm/Ab                   C/G                   
-----------------------|-----------------------|-----------------------|
-------3----------3----|-------5----------5----|-------1----------1----|
-------5----------5----|-------5----------5----|-------0----------0----|
-------4----------4----|-------3----------3----|-------2----------2----|
-----------------------|-----------------------|-----------------------|
--5-------5--5---------|--4-------4--4---------|--3-------3--3---------|


  C7/G                    D7/F#                   Fm/Ab                 
-----------------------|-----------------------|-----------------------|
-------1----------1----|-------1----------1----|-------5----------5----|
-------3----------3----|-------2----------2----|-------5----------5----|
-------2----------2----|-------0----------0----|-------3----------3----|
-----------------------|-----------------------|-----------------------|
--3-------3--3---------|--2-------2--2---------|--4-------4--4---------|


  C/E                     C7/G                    Fm                    
-----------------------|-----------------------|-----------------------|
-------1----------1----|-------1----------1----|-------1----------1----|
-------0----------0----|-------3----------3----|-------1----------1----|
-------2----------2----|-------2----------2----|-------3----------3----|
-----------------------|-----------------------|-----------------------|
--0-------0--0---------|--3-------3--3---------|--1-------1--1---------|


  C                       C/G        C            C7/G                  
-----------------------|-----------------------|-----------------------|
-------1----------1----|-------1----------1----|-------1----------1----|
-------0----------0----|-------0----------0----|-------3----------3----|
-------2----------2----|-------2----------2----|-------2----------2----|
--3-------3--3---------|-------------3---------|-----------------------|
-----------------------|--3-------3------------|--3-------3--3---------|


  D7/F#                   Fm                      C/E                   
-----------------------|-----------------------|-----------------------|
-------1----------1----|-------1----------1----|-------1----------1----|
-------2----------2----|-------1----------1----|-------0----------0----|
-------0----------0----|-------3----------3----|-------2----------2----|
-----------------------|-----------------------|-----------------------|
--2-------2--2---------|--1-------1--1---------|--0-------0--0---------|


  C7/Bb                   D7/A                    Fm/Ab                 
-----------------------|-----------------------|-----------------------|
-------1----------1----|-------3----------3----|-------5----------5----|
-------3----------3----|-------5----------5----|-------5----------5----|
-------2----------2----|-------4----------4----|-------3----------3----|
--1-------1--1---------|-----------------------|-----------------------|
-----------------------|--5-------5--5---------|--4-------4--4---------|


  C/G                     C7/G       C7           D7/F#      D7/C       
-----------------------|-----------------------|-----------------------|
-------1----------1----|-------1----------1----|-------1----------1----|
-------0----------0----|-------3----------3----|-------2----------2----|
-------2----------2----|-------2----------2----|-------0----------0----|
-----------------------|-------------3---------|-------------3---------|
--3-------3--3---------|--3-------3------------|--2-------2------------|


  Fm         Fm/C         C/G        C            C7/G       C7         
-----------------------|-----------------------|-----------------------|
-------1----------1----|-------1----------1----|-------1----------1----|
-------1----------1----|-------0----------0----|-------3----------3----|
-------3----------3----|-------2----------2----|-------2----------2----|
-------------3---------|-------------3---------|-------------3---------|
--1-------1------------|--3-------3------------|--3-------3------------|


  D7/F#      D7/C         Fm         Fm/C         C/G        C          
-----------------------|-----------------------|-----------------------|
-------1----------1----|-------1----------1----|-------1----------1----|
-------2----------2----|-------1----------1----|-------0----------0----|
-------0----------0----|-------3----------3----|-------2----------2----|
-------------3---------|-------------3---------|-------------3---------|
--2-------2------------|--1-------1------------|--3-------3------------|

[ Tab from: http://www.guitartabs.cc/tabs/a/atlantique/les_eaux_de_mars_tab.html ]
  C7/Bb                   D7/A                    Fm/Ab                 
-----------------------|-----------------------|-----------------------|
-------1----------1----|-------3----------3----|-------5----------5----|
-------0----------0----|-------5----------5----|-------5----------5----|
-------2----------2----|-------4----------4----|-------3----------3----|
--1-------1--1---------|-----------------------|-----------------------|
-----------------------|--5-------5--5---------|--4-------4--4---------|


  C/G                     C7/G                    D7/F#                 
-----------------------|-----------------------|-----------------------|
-------1----------1----|-------1----------1----|-------1----------1----|
-------0----------0----|-------3----------3----|-------2----------2----|
-------2----------2----|-------2----------2----|-------0----------0----|
-----------------------|-----------------------|-----------------------|
--3-------3--3---------|--3-------3--3---------|--2-------2--2---------|


  Fm                      C/G                     C7/G                  
-----------------------|-----------------------|-----------------------|
-------1----------1----|-------1----------1----|-------1----------1----|
-------1----------1----|-------0----------0----|-------3----------3----|
-------3----------3----|-------2----------2----|-------2----------2----|
-----------------------|-----------------------|-----------------------|
--1-------1--1---------|--3-------3--3---------|--3-------3--3---------|


  D7/F#                   Fm                      C/E                   
-----------------------|-----------------------|-----------------------|
-------1----------1----|-------1----------1----|-------1----------1----|
-------2----------2----|-------1----------1----|-------0----------0----|
-------0----------0----|-------3----------3----|-------2----------2----|
-----------------------|-----------------------|-----------------------|
--2-------2--2---------|--1-------1--1---------|--0-------0--0---------|


  C7/Bb                   D7/A                    Fm/Ab                 
-----------------------|-----------------------|-----------------------|
-------1----------1----|-------3----------3----|-------5----------5----|
-------0----------0----|-------5----------5----|-------5----------5----|
-------2----------2----|-------4----------4----|-------3----------3----|
--1-------1--1---------|-----------------------|-----------------------|
-----------------------|--5-------5--5---------|--4-------4--4---------|


    C/G                     C7/Bb                   D7/A                  
|------------------------|-----------------------|-----------------------|
|--------1----------1----|-------1----------1----|-------3----------3----|
|*-------0----------0----|-------0----------0----|-------5----------5----|
|*-------2----------2----|-------2----------2----|-------4----------4----|
|------------------------|--1-------1--1---------|-----------------------|
|---3-------3--3---------|-----------------------|--5-------5--5---------|


  Fm/Ab                   C/G                     C7/G                  
-----------------------|-----------------------|-----------------------|
-------5----------5----|-------1----------1----|-------1----------1----|
-------5----------5----|-------0----------0----|-------3----------3----|
-------3----------3----|-------2----------2----|-------2----------2----|
-----------------------|-----------------------|-----------------------|
--4-------4--4---------|--3-------3--3---------|--3-------3--3---------|


  D7/F#                   Fm                                       
-----------------------|-----------------------|------------------|
-------1----------1----|-------1----------1----|------------------|
-------2----------2----|-------1----------1----|------------------|
-------0----------0----|-------3----------3----|------------------|
-----------------------|-----------------------|------------------|
--2-------2--2---------|--1-------1--1---------|------------------|


  C/E                     C7/Bb                   D7/A                  
-----------------------|-----------------------|-----------------------|
-------1----------1----|-------1----------1----|-------3----------3----|
-------0----------0----|-------0----------0----|-------5----------5----|
-------2----------2----|-------2----------2----|-------4----------4----|
-----------------------|--1-------1--1---------|-----------------------|
--0-------0--0---------|-----------------------|--5-------5--5---------|


  Fm/Ab                      C/G                     C7/Bb                 
------------------------||------------------------|-----------------------|
-------5----------5-----||--------1----------1----|-------1----------1----|
-------5----------5----*||*-------0----------0----|-------0----------0----|
-------3----------3----*||*-------2----------2----|-------2----------2----|
------------------------||------------------------|--1-------1--1---------|
--4-------4--4----------||---3-------3--3---------|-----------------------|


  D7/A                    Fm/Ab                   C/E                   
-----------------------|-----------------------|-----------------------|
-------3----------3----|-------5----------5----|-------1----------1----|
-------5----------5----|-------5----------5----|-------0----------0----|
-------4----------4----|-------3----------3----|-------2----------2----|
-----------------------|-----------------------|-----------------------|
--5-------5--5---------|--4-------4--4---------|--0-------0--0---------|


  C7/Bb                   D7/F#                   Fm                      
-----------------------|-----------------------|------------------------||
-------1----------1----|-------1----------1----|-------1----------1-----||
-------0----------0----|-------2----------2----|-------1----------1----*||
-------2----------2----|-------0----------0----|-------3----------3----*||
--1-------1--1---------|-----------------------|------------------------||
-----------------------|--2-------2--2---------|--1-------1--1----------||
Comments