Atkins Chet - Classical Gas Chords & Tabs

 

Classical Gas Chords & Tabs

Atkins Chet Chords & Tabs

Version: 1 Type: Tab 2 ratings
1 star 2 stars 3 stars 4 stars 5 stars
comments

Classical Gas Tab

                            Chet Atkins - Classical Gas                                   
                                    by digiti

                                               

E||--------------------------|--------------------------|
B||--1h---0h-1------1---0----|-----------0------------0-|
G||--2----------2-------0----|-----------0--2h-0h-2-----|
D||--2------------------2----|-----------2--------------|
A||--------------------------|--------------------------|
E||--0------------------0----|----2--0---0--------------|


                                                                               
-------------0------------|-------------------------|-------------------------|
-------------1---3--3h5h3-|--1---3/5----3--1--0---0-|--------------1/3--1--0--|
----2--------2---4--4h5h4-|--2---4/5----4--2--0---0-|--------------2/4--2--0--|
-------------2------------|-----------------------2-|-------------------------|
----0--------0------------|-----------------------2-|-------------------------|
-------------0------------|-------------0---------0-|----3-2---0--------------|


                                                             
-----------------------------|----------------3--0----------|
--1--1/3---1-------1-0-----0-|--1-----1-3---3-------3-1--3--|
--2--2/4---------2-------0---|------2-----0-----------------|
---------------2-------0-----|----2-------------------2-----|
-----------0-----------------|--0-------2---2----3----------|
---------------------3-------|------------------------------|


                                                         
--0-------------------|---------------------------------|
--------1---0---------|--1h0h1-----1--0-----------------|
----------------------|--------2---2--0-----0-----0---0-|
-----2----------------|-------------------0-----0-------|
----------------------|--0-------0----------------------|
----------------------|-----------------3-----2-----0---|


                                                                    
---------------------------------|---------------------------------|
--0---------0--------------------|--1h0h1-----1--0-----------------|
----2h0-2---0--2-----2-----2---2-|--------2---2--0-----0-----0---0-|
-------------------2-----2-------|-------------------0-----0-------|
-----------------0-----0-----0---|--0-------0----------------------|
--0-------0----------------------|-----------------3-----2-----0---|


                                                                    
---------------------------------|---------------------------------|
--0---------0--------------------|--1h0h1-----1--0-----------------|
----2h0-2---0--2-----2-----2---2-|--------2---2--0-----0-----0---0-|
-------------------2-----2-------|-------------------0-----0-------|
-----------------0-----0-----0---|--0-------0----------------------|
--0-------0----------------------|-----------------3-----2-----0---|


                                                                    
---------------------------------|---------------------------------|
--0---------0--------------------|--1h0h1-----1--0-----------------|
----2h0-2---0--2-----2-----2---2-|--------2---2--0-----0-----0---0-|
-------------------2-----2-------|-------------------0-----0-------|
-----------------0-----0-----0---|--0-------0----------------------|
--0-------0----------------------|-----------------3-----2-----0---|


                                                                 
---------------------------------|------------------0-----------|
--0---------0----------0-----0h1-|------1-----3---------3-1--3--|
----2h0-2---0--2-----2-----0-----|----0-----0-----0-------------|
-------------------2-------------|------------------2-----------|
-----------------0---------------|--0-----2-----3---------0-----|
--0-------0--------------3-------|------------------------------|


                                                                   
--0----------------------------|----------------------------------|
----1h0----------------------0-|------0h1-----1-----3-----------1-|
---------2---0-2-2---0h2---2---|----0-------0-----0-----0-----2---|
--2----------------2-----2-----|----------------------------2-----|
---------0-----0-------0-------|----------0-----2-----3---0-------|
-------------------------------|--3-------------------------------|


                                                     
--------------4--5--7--|--8-7-5----5-----------5----|
------0h1--------------|--------8-----7---7-7----7--|
----0------------------|--------------7---7-7----7--|
-----------------------|--------------0---0-0----0--|
-----------------------|----------------------------|
--3--------------------|----------------------------|


                                                          
--8-7-5----5----------------|--8-7-5----5-----8--5----5--|
--------8------7/8/7-8---7--|--------8------7------8-----|
---------------7------------|---------------7------------|
---------------0------------|---------------0------------|
----------------------------|----------------------------|
----------------------------|----------------------------|


                                                             
--3---0---1-------0---0---|-----------0---------------------|
--------------3-----------|---------3---3-------------------|
--------------------------|-------2-------2-----------------|
--------------------------|-----3-----------3---------------|
--------------------------|---0---------------0-------------|
--------------------------|---------------------------------|


                                                                
-------------0---------------|---------------------------------|
----------3-----3---------3--|--1h0h1-----1--0-----------------|
-------2----------2-----2----|--------2---2--0-----0-----0---0-|
----3-----------------3------|-------------------0-----0-------|
--0-----------------0--------|--0-------0----------------------|
-----------------------------|-----------------3-----2-----0---|


                                                                    
---------------------------------|---------------------------------|
--0---------0--------------------|--1h0h1-----1--0-----------------|
----2h0-2---0--2-----2-----2---2-|--------2---2--0-----0-----0---0-|
-------------------2-----2-------|-------------------0-----0-------|
-----------------0-----0-----0---|--0-------0----------------------|
--0-------0----------------------|-----------------3-----2-----0---|


                                                                           
--------------------------|----------2----3-3/5--|--5---------2----3-3/5--|
--0---------0-----1-------|----------3-----------|------------3-----------|
----2h0-2---0--2--2-------|----------2-----------|------------2-----------|
------------------2-------|----------0-----------|------------0-----------|
------------------0-------|----------0-----------|--4------0--0-----------|
--0-------0-------0-------|----------------------|------------------------|


                                                                             
--5---------2----3-3/5--|--5----7--9--10----7--9--|--5----------2----3-3/5--|
------------3-----------|-------------9-----9-----|--5----------3-----------|
------------2-----------|-------------9-----7-----|--7----6-----------------|
------------0-----------|-------------9-----------|--7----------------------|
--4------0--0-----------|--4----------------------|----------0--0-----------|
------------------------|-------------------------|-------------------------|

[ Tab from: http://www.guitartabs.cc/tabs/a/atkins_chet/classical_gas_tab.html ]
                                                                               
--5-----------2----3-3/5--|--5-----------2----3-3/5--|--5----3--2--0----2--0--|
--------------3-----------|--------------3-----------|-------0-----2----2-----|
--------------------------|--------------2-----------|-------0-----0----2-----|
------2-0-----------------|-----2--0-----0-----------|-------0-----2----2-----|
--4--------0--0-----------|--4--------0--0-----------|--4----2-----0----------|
--------------------------|--------------------------|------------------------|


                                                       
-------------------|----------------------------------|
--3----------------|--------------------0-------------|
--2----------------|----0-----------------2-0---------|
--0----------------|------3-2-0---------------3-2-0---|
--0----------------|------------3-2-0---------------3-|
-------------------|--3---------------3---------------|


                                                                   
-------------------------------|----------------------------------|
----3-1-0----------------------|----------------------------1-3-0-|
----------2-0------------------|----0---0---0---0---0---0---0-0-0-|
--------------3-2-0------------|--2---2---2---2---3---3---3---3---|
--2-----------------3-2-0------|----------------------------------|
--------------------------3----|----------------------------------|


                                                                 
----------------0-3---1-1-0-----|-------------------------------|
--1---1---1-0-1-------------3-1-|----0-1-2-3---------3-1--------|
----0---0-----------------------|--2---------------0-----2-0----|
--2---2---2---2---0-------------|--3---------0-2-4--------------|
------------------------3-------|-------------------------------|
--------------------------------|-------------------------------|


                                                                    
----------------------------------|----------------0-3---1-1-0-----|
----------------------------1-3-0-|--1---1---1-0-1-------------3-1-|
----0---0---0---0---0---0---0-0-0-|----0---0-----------------------|
--2---2---2---2---3---3---3---3---|--2---2---2---2---0-------------|
----------------------------------|------------------------3-------|
----------------------------------|--------------------------------|


                                                   
----1-0-------------------------------------------|
--------3-1-0-------------------------------------|
--2-----------2-0---------------------------------|
--3---------------3-3-2-2-0-0---------------------|
------------------------------3-3-2-2-0-0---------|
------------------------------------------3-3-1-1-|


                                                                         
---------------0---------------------|----------------------------------|
-------------0---0-------------------|----------------------------------|
-----------1-------1-----------------|--------------------------2h1h2---|
---------3-----------3---------------|------------------2h1h2---------2-|
-------------------------------------|----------3h2h3-0-------3---------|
--0--------------------0-------------|--5h4h5-0-------------------------|


                                                          
----------------------------------|----------------------|
--------------------------3h2h3---|--1h0h1---------------|
------------------2h1h2---------2-|--------2-------------|
----------3h2h3-0-------3---------|----------------------|
--5h4h5-0-------------------------|----------------------|
----------------------------------|----------------------|


                                                         
----------------------|---------------------------------|
--1h0h1---------------|--1h0h1-----1--0-----------------|
--------2-------------|--------2---2--0-----0-----0---0-|
----------------------|-------------------0-----0-------|
----------------------|--0-------0----------------------|
----------------------|-----------------3-----2-----0---|


                                                                    
---------------------------------|---------------------------------|
--0---------0--------------------|--1h0h1-----1--0-----------------|
----2h0-2---0--2-----2-----2---2-|--------2---2--0-----0-----0---0-|
-------------------2-----2-------|-------------------0-----0-------|
-----------------0-----0-----0---|--0-------0----------------------|
--0-------0----------------------|-----------------3-----2-----0---|


                                                                    
---------------------------------|---------------------------------|
--0---------0--------------------|--1h0h1-----1--0-----------------|
----2h0-2---0--2-----2-----2---2-|--------2---2--0-----0-----0---0-|
-------------------2-----2-------|-------------------0-----0-------|
-----------------0-----0-----0---|--0-------0----------------------|
--0-------0----------------------|-----------------3-----2-----0---|


                                                                 
---------------------------------|------------------0-----------|
--0---------0----------0-----0h1-|------1-----3---------3-1--3--|
----2h0-2---0--2-----2-----0-----|----0-----0-----0-------------|
-------------------2-------------|------------------2-----------|
-----------------0---------------|--0-----2-----3---------0-----|
--0-------0--------------3-------|------------------------------|


                                                                   
--0----------------------------|----------------------------------|
--1-1h0----------------------0-|------0h1-----1-----3-----------1-|
--2------2---0-2-2---0h2---2---|----0-------0-----0-----0-----2---|
--2----------------2-----2-----|----------------------------2-----|
---------0-----0-------0-------|----------0-----2-----3---0-------|
-------------------------------|--3-------------------------------|


                                                    
-----2---3---4--5--7--|--8-7-5----5-----------5----|
----------------------|--------8-----7---7-7----7--|
----------------------|--------------7---7-7----7--|
----------------------|--------------0---0-0----0--|
----------------------|----------------------------|
--3-------------------|----------------------------|


                                                          
--8-7-5----5--------5-------|--8-7-5----5-----8--5----5--|
--------8-----7--8----8--7--|--------8------7------8-----|
--------------7----------7--|---------------7------------|
--------------0----------0--|---------------0------------|
----------------------------|----------------------------|
----------------------------|----------------------------|


                                                             
--3---0---1-------0---0---|-----------0---------------------|
--------------3-----------|---------3---3-------------------|
--------------------------|-------2-------2-----------------|
--------------------------|-----3-----------3---------------|
--------------------------|---0---------------0-------------|
--------------------------|---------------------------------|


                                                            
-------------0---------------|-------------0---------------|
----------3-----3---------3--|----------3-----3---------3--|
-------2----------2-----2----|-------2----------2-----2----|
----3-----------------3------|----4-----------------4------|
--0-----------------0--------|--0-----------------0--------|
-----------------------------|-----------------------------|


                      
--------------------||
---0h2--------------||
---1h2--------------||
--------------------||
--------------------||
--------------------||
Comments