Atilla And The Huns - Sara Song Chords & Tabs

 

Sara Song Chords & Tabs

Atilla And The Huns Chords & Tabs

Version: 1 Type: Tab 0 ratings
1 star 2 stars 3 stars 4 stars 5 stars
comments

Sara Song Tab

The Sara Song.  Written by Greg Stry, in his lust for Sara McClung.

Part 1.
E------3-------3-------3-------3----|
B----1---1---1---1---1---1---1---1--|
G--2-------2-------0-------0--------|   Repeat through part 1.
D-----------------------------------|
A-----------------------------------|
E-----------------------------------|


Part 2.
Strum the above like a chord.  A few strums with 2nd fret 3rd string,
followed by a few with open 3rd string then repeat.

[ Tab from: http://www.guitartabs.cc/tabs/a/atilla_and_the_huns/sara_song_tab.html ]
Part 3.
E--------3-----------3----------------------|
B------1-----------1------------------------|
G----2-----------0-----------    Repeat 2-3-| times, then fade out.
D--0-----------0----------------------------|
A-------------------------------------------|
E-------------------------------------------|

Part 1
words according to Atilla and the Huns recording 3/3/98

Two months ago, a girl walked into my house
No no, a woman.  No no, an angel.
She said "Do you have any chili, Greg?"
I said "I have chili with potatoes in it."
She said, "What kind of moron puts potatoes in chili?"
Warm it up Sara, put it in the microwave.
3......2.......1.......BEEP
Be careful Sara, don't burn yourself.
Ouch!  I burnt myself.
Thats okay Sara.
Slurp, slurp.  Slurp, slurp.
Mmmmmmm, this chili's good Greg.
And I like the potatoes.
Two months later I learned potatoes were her favorite food.


Part 2.
I do like you Sara.
Hope you like me too.
I do like you Sara.
Hope you like me too.


Part 3.
Sara, do you want seconds?
You can have seconds, any time you like...
Comments