Atif Aslam - Jal Pari Chords & Tabs

 

Jal Pari Chords & Tabs

Atif Aslam Chords & Tabs

Version: 1 Type: Tab 0 ratings
1 star 2 stars 3 stars 4 stars 5 stars
comments

Jal Pari Tab

artist: Atif Aslam
Song: Jal pari
Tabbed by : Hamood ur Rehman
"Jal pari" by Atif Aslam is quit an easy song to play and it sounds great! when i found
out its chords i was really excited to upload it to the site!! Any way the chords goes
like this!
e\-----------------0---|
B\--------------5------|
G\----------6----------| (let it ring)
D\------7--------------|
A\---0-----------------|
E\---x-----------------|
mujh say kahay.........

e\------------------7--|
B\---------------5-----|
G\------------6--------| (let it ring)
D\--------7------------|
A\---0-----------------|
E\---x-----------------|

e\-------------------5-| 2x
B\--------------3------|
G\----------4----------| (let it ring)
D\-------5-------------|
A\---0-----------------|
E\---x-----------------|
ek jal pari...........

e\-----------------0---|
B\--------------5------|
G\----------6----------| (let it ring)
D\------7--------------|
A\---0-----------------|
E\---x-----------------|
doob janay doo.........
[ Tab from: http://www.guitartabs.cc/tabs/a/atif_aslam/jal_pari_tab.html ]
e\------------------7--|
B\---------------5-----|
G\------------6--------| (let it ring)
D\--------7------------|
A\---0-----------------|
E\---x-----------------|

e\-------------------5-|   2x
B\--------------3------|
G\----------4----------|\ (let it ring)
D\-------5-------------|
A\---0-----------------|
E\---x-----------------|
jal main kaheeeeeeeeenn

e\-----------------0---|
B\--------------5------|
G\----------6----------| (let it ring)
D\------7--------------|
A\---0-----------------|
E\---x-----------------|
aaaaaaaaaaaa...........
now, from dil ki lagee (till the congoo starts) follow the same pattern.
---------------------------------------------------
only 2 chords are used after the start of congoo.

e\---5---|
B\---5---|
G\---6---| strike this chord with the vocals given at the bottom
D\---7---|
A\---7---|
E\---5---|
soo janay do chup janay do.......

e\---3---|
B\---3---|
G\---4---| strike this chord with the vocals given at the bottom
D\---5---|
A\---5---|
E\---3---|
lyhroon main kaheen doob janay doo.....

i know u can figure it out yourself now. cause the rest of the song is played on these chords.
any mistakes or confussions you are free to mail me at my e-mail address.
hamoodrehman708@hotmail.com  ;)
Comments