Athlete - You Got The Style Chords & Tabs

 

You Got The Style Chords & Tabs

Athlete Chords & Tabs

Version: 3 Type: Tab 0 ratings
1 star 2 stars 3 stars 4 stars 5 stars
comments

You Got The Style Tab

Song: You got the style
Band: Athlete
Tuning: Standard
Tabber: *'-'* Rivett

This is a good song


Verse:

e|-9--9--9--9--9--9--9--9--9--9--9--7-7-7-7-7-7-7-7-7------7-7~-|
B|-10-10-10-10-10-10-10-10-10-10-10-9-9-9-9-9-9-9-9-9--10--9-9~-|
G|-11-11-11-11-11-11-11-11-11-11-11-9-9-9-9-9-9-9-9-9---9--9-9~-|
D|--------------------------------------------------------------|
A|--------------------------------------------------------------|
E|--------------------------------------------------------------|

e|----------7---7-----7--|
B|-----7--7--------9--7--|
G|--9--------------------|
D|-----------------------|
A|-----------------------|
E|-----------------------|

Chorus 1 (quiet):

e|-------------9------------9---7-----------|
B|----------10------------9-------7---------|
G|--------9-------------9-----------7-------|
D|-----11-------------9---------------7-----|
A|--12-------------11-------------------9---|
E|------------------------------------------|

Chorus 2 (louder):
[ Tab from: http://www.guitartabs.cc/tabs/a/athlete/you_got_the_style_tab_ver_3.html ]
e|-9-----9---9------9------9---9---9-----7---7---7---7---|
B|-10----10--10-----9------9---9---9-----7---7---7---7---|
G|-9-----9---9------9------9---9---9-----7---7---7---7---|
D|-11----11--11-----9------9---9---9-----7---7---7---7---|
A|-12----12--12-----11-----11--11--11----9---9---9---9---|
E|-------------------------------------------------------|

e|--10--10--10--10--10-12-|
B|--7---7---7---7---7--9--|
G|--7---7---7---7---7--9--|
D|--7---7---7---7---7--9--|
A|------------------------|
E|------------------------|

Bridge:

e|--12-12-12-12-12-12-12-------------------------------------|
B|--10-10-10-10-10-10-10----12-12-12-12-12---10-10-10-10-10--|
G|--9--9--9--9--9--9--9-----10-10-10-10-10---7--7--7--7--7---|
D|--11-11-11-11-11-11-11----9--9--9--9--9----7--7--7--7--7---|
A|--9--9--9--9--9--9--9-----11-11-11-11-11---9--9--9--9--9---|
E|--------------------------9--9--9--9--9----7--7--7--7--7---|

e|------------------------|
B|--12-12-12-12-12-12-12--|
G|--10-10-10-10-10-10-10--|
D|--9--9--9--9--9--9--9---|
A|--11-11-11-11-11-11-11--|
E|--9--9--9--9--9--9--9---|

Solo:

e|-------5--------4-------------------------------------------------|
B|-----7--------5---------------------------------------------------|
G|---6--------4-----------------------------------------------------|
D|-7--------6--------------------------------------------------9----|
A|--------------------12-12-12-12-12-12-12-12--11--9--7/11--7-----9-|
E|------------------------------------------------------------------|


That is all. I hope you can have some fun with it.

Cheers!







Comments