Athlete - Tourist Chords & Tabs

 

Tourist Chords & Tabs

Athlete Chords & Tabs

Version: 2 Type: Tab 0 ratings
1 star 2 stars 3 stars 4 stars 5 stars
comments

Tourist Tab

Band-Athlete
Song-Tourist
Album-Tourist (2005)

Brilliant song, brilliant band, brilliant album.

Hi, this is my first tab. Hope its ok! It's pretty basic, just play this riff for the
whole entire song. Easy!         
Tuning-Standard (EBGDAE)
[ Tab from: http://www.guitartabs.cc/tabs/a/athlete/tourist_tab_ver_2.html ]
Guitar 1 (This is played through whole song)
E---------------------------------------
B--6--6--6--6---------------------------
G--7--7--7--7--5--7--7--7--7---9---9----
D--0--0--0--0--7--8--8--8--8--10--10----
A--------------0------------------------
E-----------------6--6--6--6---8---8----



Guitar 2 (This is played at the end of every other 
line of the intro and the verses)
E--8--6--5--3--1----
B-------------------
G-------------------
D-------------------
A-------------------
E-------------------

It's as easy as that!
Comments