Athlete - Shake Those Windows Chords & Tabs

 

Shake Those Windows Chords & Tabs

Athlete Chords & Tabs

Version: 1 Type: Tab 0 ratings
1 star 2 stars 3 stars 4 stars 5 stars
comments

Shake Those Windows Tab

Artist - Athlete
Song   - Shake Those Windows
Album  - Vehicles & Animals (2003)

Tab by - Tom Emmett (polythene_bloke22@hotmail.com)
==============================================================================================================

This probably isn't 100% correct, but it works well enough if you're doing it in a band, or just playing along
with the CD. Also, this is my first tab, so it's probably gonna fail. Sorry.
--------------------------------------------------------------------------------------------------------------

VERSE:

e---1-
b-----
g---3- x 4
d-----
a-1---
e-----

e---1-
b-----
g---3- x 4
d-1---
a-----
e-----

PRE-CHORUS (shake those windows, sums and songs etc...):

e---1-
b---3-
g---2- x 4
d-0---
a-----
e-----

e---3-
b---4-
g---4- x 4
d-----
a-3---
e-----

The first time round the keyboard plays this (it's guitar the other time):

e---6-5-        e---8-6
b-------        b------
g-7-----  x 2   g-8----
d-------        d------
a-------        a------
e-------        e------

CHORUS (just let the record play...):
[ Tab from: http://www.guitartabs.cc/tabs/a/athlete/shake_those_windows_tab.html ]
Chords: Bb (except last time), Eb, Cm, Bb (I think that makes sense)

Lead (listen to the track for rhythm):

e-------6-5--------8--10-----------11-10-----------13---
b---6----------6-------------11--------------11---------
g-7---7------7---7--------12----12--------12----12------
d-------------------------------------------------------
a-------------------------------------------------------
e-------------------------------------------------------

MIDDLE 8:

The keyboard here plays the root notes of the chords, I'm not sure what they are though.

The lead guitar plays a few licks based around the following three notes:

e-------13-
b-11-13----
g----------
d----------
a----------
e----------

OUTRO (just let yourself go):

I think it's the same as the lead bit from the chorus for most of it.

The chords (works well as power chords) are: Eb, Gm, Bb.

Ends on Bb.

==========================================================================================
Any comments (except those complaining about me posting about tabs on the forum) can be
sent to polythene_bloke22@hotmail.com. Sorry if the tab's not that good, but like I said,
it's a first attempt! Cheers.
Comments