Athlete - I Love Chords & Tabs

 

I Love Chords & Tabs

Athlete Chords & Tabs

Version: 2 Type: Tab 0 ratings
1 star 2 stars 3 stars 4 stars 5 stars
comments

I Love Tab

---------------------------------------------------------------------------
			     I Love - Athlete
---------------------------------------------------------------------------
Tabbed by: chewy67
Email: chewy67@hotmail.co.uk

Solo Guitar
***********

the solo simply changes between these two, just add feeling.
[ Tab from: http://www.guitartabs.cc/tabs/a/athlete/i_love_tab_ver_2.html ]
E |4--4--4--6--6--------|
B |-5--5--5--5----------|
G |--4--4--4--4---------|
D |---------------------|
A |---------------------|
E |---------------------|

E |0--0--2--4--0--------|
B |-2--2--2--2----------|
G |--2--2--2--2---------|
D |---------------------|
A |---------------------|
E |---------------------|


Any mistakes or questions can be sent to me @ chewy67@hotmail.co.uk
enjoy =)
Comments