Ataris - The Saddest Song Chords & Tabs

 

The Saddest Song Chords & Tabs

Ataris Chords & Tabs

Version: 1 Type: Tab 0 ratings
1 star 2 stars 3 stars 4 stars 5 stars
comments

The Saddest Song Tab

   
The saddest song - a great song, with an acoustic sound to it.
Although there is an acoustic version of it.

  Intro (guitar in backround)
e|-3h4p3---------------3h4p3-----4/6-(6)-\-4--------8h9p8-----------------8--|
B|-------4---4/5-(5)\4-------4----------------6/8-9-------9---9/10-(10)-10-9-|
G|---------5-------------------5----------------------------10---------------|
D|---------------------------------------------------------------------------|
A|---------------------------------------------------------------------------|
E|---------------------------------------------------------------------------|
                                                                        L.R:----
[ Tab from: http://www.guitartabs.cc/tabs/a/ataris/the_saddest_song_tab.html ]
  Second part of intro + verse    U=upstroke  D=downstroke
e|-1-1---1---1---1--3-3---3---3---3--1-1---1---1---1----6-6---6---6---6------|
B|-3-3---3---3---3--3-3---3---3---3--1-1---1---1---1----8-8---8---8---8------|
G|-3-3-x-3-x-3-x-3--3-3-x-3-x-3-x-3--2-2-x-2-x-2-x-2----8-8-x-8-x-8-x-8------|
D|-3-3-x-3-x-3-x-3--5-5-x-5-x-5-x-5--3-3-x-3-x-3-x-3----8-8-x-8-x-8-x-8------|
A|-1-1-x-1-x-1-x-1--5-5-x-5-x-5-x-5--3-3-x-3-x-3-x-3----6-6-x-6-x-6-x-6------|
E|-1-1-x-1-x-1-x-1--3-3-x-3-x-3-x-3\-1-1-x-1-x-1-x-1/-6-6-6-x-6-x-6-x-6------|
   U D U D U D U D  U D U D U D U D  U D U D U D U D    U D U D U D U D

  Chorus "so i pretend, im doing all i can..."
e|---------------------------------------------------------------------------|
B|---------------------------------------------------------------------------|
G|----3---3---3---3-----------------3-3-3-3-3-3-3-3-3-8-8-8-8-8-8-8-8--------|
D|--5-5-5-5-5-5-5-5-3-3-3-3-3-3-3-3-3-3-3-3-3-3-3-3-3-8-8-8-8-8-8-8-8--------|
A|--5-5-5-5-5-5-5-5-3-3-3-3-3-3-3-3-1-1-1-1-1-1-1-1-1-6-6-6-6-6-6-6-6--------|
E|--3-3-3-3-3-3-3-3-1-1-1-1-1-1-1-1---------------------6---6---6---6--------|

its a simple song but a good intro riff and an orverall good song. I think thats
the whole song, the chords are all right but i may have got the variations of the
chord patterns wrong or they may vary. Anyway if ive made any mistakes or
anything please contribute comments or corrections. Thanx.


| /  slide up
| \  slide down
| h  hammer-on
| p  pull-off
| x  Mute note            Email: lessthanjake_42@hotmail.com
===============================================================================
Comments