Ataris - The Saddest Song Acoustic Chords & Tabs

 

The Saddest Song Acoustic Chords & Tabs

Ataris Chords & Tabs

Version: 1 Type: Tab 0 ratings
1 star 2 stars 3 stars 4 stars 5 stars
comments

The Saddest Song Acoustic Tab

--------------------------------------------------------------------------------
			"The Saddest Song" (Acoustic) - The Ataris
--------------------------------------------------------------------------------

Tabbed by: Mike Borland
Email: Mike8215@aol.com
Tuning: Standard

  Intro:
e|-----------------------------------|
B|-----------------------------------|
G|--3-----------3--------------------|
D|--3---5---3---3--------------------|
A|--1---5---3---1--------------------|
E|------3---1------------------------|
[ Tab from: http://www.guitartabs.cc/tabs/a/ataris/the_saddest_song_acoustic_tab.html ]
  Verses: Palm Mute
e|--------------------------------------|
B|--------------------------------------|
G|--3-------------------------3---------|
D|--3----5--------3-----------3---------|
A|--1----5--------3-----------1---------|
E|-------3--------1---------------------|
  Only..days..birthday..yesterday...
 You'll..five...like........father...
  
  Prechorus:
e|-----------------------------------------------|
B|-----------------------------------------------|
G|---------------3-----5-----------------3-------|
D|--5-----3------3-----5----5-----3------3-------|
A|--5-----3------1-----3----5-----3------1-------|
E|--3-----1-----------------3-----1--------------|
   So..pretend..doin..can..hope..find..heart...
   To..stand...I'm..round..forgive.bein..life...


  Chorus:
e|---------------------------------------------------------l-------------|
B|---------------------------------------------------------l-------------|
G|---3------------------------------------3----------------l-------XXXX--|
D|---3----------5----------3--------------3----------------l-2X----XXXX--|
A|---1----------5----------3--------------1----------------l-------XXXX--|
E|--------------3----------1-------------------------------l-------XXXX--|
  Waiting... Waiting... Waiting there to find nothing at all...
Comments