Ataris - The Boys Of Summer Chords & Tabs

 

The Boys Of Summer Chords & Tabs

Ataris Chords & Tabs

Version: 3 Type: Tab 0 ratings
1 star 2 stars 3 stars 4 stars 5 stars
comments

The Boys Of Summer Tab

Intro
E---9-/11------------| 
A---11/13-11h13--13--| 
D---11/13------11----| 
G--------------------|   
B--------------------|  
e--------------------|     

Background-This is played off and on throughout the whole song.
E------------|  
A------------|                                   
D--------11--|                                                         
G---11-10----|                                                         
B------------|                              
e------------|  

Verse-This is all that is played during the verse, it is just repeated.
E---11-7-9--7--|                     
A---13-9-11-9--|                           
D---13-9-11-9--|                                                       
G--------------|                                                       
B--------------|                                                       
e--------------|                                                       

Chorus-All the cords in the chorus, just repeat.
E---9--9--7--| 
A---9--11-9--| 
D---11-11-9--|  
G---11-10-8--| 
B---9--9--7--| 
e------------| 

Verse-the second Verse and the third have a bit of palm muting in them.
E---11-7-9--7--|  
A---13-9-11-9--|                            
D---13-9-11-9--| 
G--------------|  
B--------------| 
e--------------| 

Verse Background Solo-If you listen closely there is a background solo played during the second Verse.
E---11-----11-13-12-12/14-12-12----4-6-7-4---4/2-1----1-2-4-4/6-2-2--| 
A--------------------------------------------------------------------| 
D--------------------------------------------------------------------| 
G--------------------------------------------------------------------| 
B--------------------------------------------------------------------| 
e--------------------------------------------------------------------| 

Chorus.
E---9--9--7--| 
A---9--11-9--| 
D---11-11-9--|  
G---11-10-8--| 
B---9--9--7--| 
e------------|
[ Tab from: http://www.guitartabs.cc/tabs/a/ataris/the_boys_of_summer_tab_ver_3.html ]
Bridge-This is everything included in the bridge, there are technically three guitars
playing, but one of them is doubled over at one point counting as 4, but the fourth is
VERY faint and not needed. In one part it plays the same solo during the second verse
witch is above, and during the whole thing is played that same three notes at the top of
this tab.  Just listen to the song and figure out what to play and when...it's all here.

E--------------------------------|
A--------------------------------| 
D---13-13-11-11-9-9--13-13-11-9--| 
G--------------------------------| 
B--------------------------------| 
e--------------------------------|    


E-------------------------------------------------------------|       
A-------------------------------------------------------------|       
D-------------------------------------------------------------|       
G---18--18-16-15-11-18-16-15-11---11h13p11-10/11/10-8/10-6/8--|       
B-------------------------------------------------------------|       
e-------------------------------------------------------------|       

E-------------------------|                                            
A-------------------------|                                            
D---19-17-16-14/16/14-12--|                                            
G-------------------------|                                            
B-------------------------|                                            
e-------------------------|                                            

E--------------------------|                                           
A--------------------------|                                           
D--------------------------|                                           
G---8-10-8-11-8-13-15-8-8--|                                           
B--------------------------|                                           
e--------------------------|                                           

Verse.
E---11-7-9--7--|  
A---13-9-11-9--|                            
D---13-9-11-9--| 
G--------------|  
B--------------| 
e--------------|

Chorus.
E---9--9--7--| 
A---9--11-9--| 
D---11-11-9--|  
G---11-10-8--| 
B---9--9--7--| 
e------------|

Chorus Background-Played in the back during the last chorus and alone at the very end of the song.
E-----------------------------------------------|
A-----------------------------------------------|
D------------11-----------11-----------11-------|
G----------11--11-------11--11-------1111-6/8--|
B---11-9-11------11-9-11------11-9-11-----------|
e-----------------------------------------------|
Comments