Ataris - The Boys Of Summer Chords & Tabs

 

The Boys Of Summer Chords & Tabs

Ataris Chords & Tabs

Version: 5 Type: Bass Tab 0 ratings
1 star 2 stars 3 stars 4 stars 5 stars
comments

The Boys Of Summer Bass Tab

INTRO
G ---------------------------|
D ---------------------------|
A 6~-6~----------------------|
E ------7~--9~--7~--77777777-|

VERSE (x2)
G -------------------------------|
D -------------------------------|
A 6(x16)-------------------------|
E --------7(x16)--9(x16)--7(x16--|

CHORUS (x2)
G --------------------|
D --------------------|
A 9(x8)---------------|
E -------9(x16--------| 7(x8)

VERSE (x2)

CHORUS (x2)

BRIDGE
G ------------------------------------|
D ------------------------------------|
A -------6(x16)-----------------------|
E 7~-7~---------7(x16)--9(x16)--7(x16-|
[ Tab from: http://www.guitartabs.cc/tabs/a/ataris/the_boys_of_summer_btab_ver_5.html ]
VERSE (x2) (second time: last 7 (x13))

LAST CHORUS
G --------------------|
D --------------------|
A 9(x8)---------------|
E -------9(x16--------| 7(x8)

G -----------------------------|
D -----------------------------|
A 9(x8)------------------14p13-|
E -------9(x16) 7(x5)/14-------|

G ------------------------------|
D ------------------------------|
A 9(x8)--------------1414141313-|
E -------9(x16) 7(x8)-----------|

G -----------------------------|
D -----------------------------|
A 9(x8)------------------------|
E -------9(x16)-7777766642~----|

OUTRO
G -------------|
D -------------|
A -------------|
E ---9~-9~-7~~-|
Comments