Ataris - The Boys Of Summer Chords & Tabs

 

The Boys Of Summer Chords & Tabs

Ataris Chords & Tabs

Version: 1 Type: Bass Tab 0 ratings
1 star 2 stars 3 stars 4 stars 5 stars
comments

The Boys Of Summer Bass Tab

This is my first tab, but I think it's right.
> play 16 times
/ slide

Intro: 
G|---------------------------------|
D|---------------------------------|
A|--5----5-------------------------|
E|-------------7------9-------7----|

Verse:
G|-----------------------------------------|
D|-----------------------------------------|
A|-5>--------------------------------------|
E|-----------7>--------9>----------7>------|

Chorus:
G|-------------------------------------------------|
D|-------------------------------------------------|
A|-55555555----------------------------------------|
E|-----------77777777---99999999---77777777--------|

Bridge:  (you do this once then you play the verse riff two times)
G|---------------|
D|---------------|
A|--5-------5----|
E|---------------|

Ending Chorus:
G|----------------------------------------------------|
D|----------------------------------------------------|
A|-55555555-------------------------------------------|
E|------------77777777---99999999---77777777----------|
[ Tab from: http://www.guitartabs.cc/tabs/a/ataris/the_boys_of_summer_btab.html ]
G|--------------------------------------------------------|
D|--------------------------------------------------------|
A|-55555555------------------------------------------5----|
E|-----------77777777--99999999---777777777/9--9--7-------|

G|---------------------------------------------------------|
D|---------------------------------------------------------|
A|-55555555----------------------------------------------5-|
E|-----------77777777---99999999--777777777/9----9---7-----|

G|-----------------------------------------------------|
D|-----------------------------------------------------|
A|-55555555--------------------------------------------|
E|-----------77777777---99999999--77777777-------------|

Outro:
G|-----------------------------|
D|-----------------------------|
A|---5-------------------------|
E|--------7-----9-----7--------|

Intro: x1
Verse: x1
Chorus: x2
Verse: x2
Chorus: x2 
Bridge x1/Verse x2
Verse: x1
Ending Chorus: x1
Outro: x1

Well, there it is.  This song is actually a cover, but I don't know by who.
Enjoy!  And, yes, girls can kick ass at bass too!
Comments